ISO-10303-21;
HEADER;
/* Generated by software containing ST-Developer
 * from STEP Tools, Inc. (www.steptools.com) 
 */

FILE_DESCRIPTION(
/* description */ (''),
/* implementation_level */ '2;1');

FILE_NAME(
/* name */ '/Users/matt/Desktop/SQ PLATES dwg/EBL-PL6-SQ.step',
/* time_stamp */ '2020-08-10T16:10:46+01:00',
/* author */ (''),
/* organization */ (''),
/* preprocessor_version */ 'ST-DEVELOPER v18.1',
/* originating_system */ 'Autodesk Translation Framework v9.3.0.1241',
/* authorisation */ '');

FILE_SCHEMA (('AUTOMOTIVE_DESIGN { 1 0 10303 214 3 1 1 }'));
ENDSEC;

DATA;
#10=MECHANICAL_DESIGN_GEOMETRIC_PRESENTATION_REPRESENTATION('',(#13),#378);
#11=SHAPE_REPRESENTATION_RELATIONSHIP('SRR','None',#385,#12);
#12=ADVANCED_BREP_SHAPE_REPRESENTATION('',(#14),#377);
#13=STYLED_ITEM('',(#394),#14);
#14=MANIFOLD_SOLID_BREP('Body1',#222);
#15=FACE_BOUND('',#52,.T.);
#16=FACE_BOUND('',#53,.T.);
#17=FACE_BOUND('',#54,.T.);
#18=FACE_BOUND('',#55,.T.);
#19=FACE_BOUND('',#56,.T.);
#20=FACE_BOUND('',#58,.T.);
#21=FACE_BOUND('',#59,.T.);
#22=FACE_BOUND('',#60,.T.);
#23=FACE_BOUND('',#61,.T.);
#24=FACE_BOUND('',#62,.T.);
#25=PLANE('',#251);
#26=PLANE('',#252);
#27=PLANE('',#253);
#28=PLANE('',#254);
#29=PLANE('',#255);
#30=PLANE('',#256);
#31=FACE_OUTER_BOUND('',#42,.T.);
#32=FACE_OUTER_BOUND('',#43,.T.);
#33=FACE_OUTER_BOUND('',#44,.T.);
#34=FACE_OUTER_BOUND('',#45,.T.);
#35=FACE_OUTER_BOUND('',#46,.T.);
#36=FACE_OUTER_BOUND('',#47,.T.);
#37=FACE_OUTER_BOUND('',#48,.T.);
#38=FACE_OUTER_BOUND('',#49,.T.);
#39=FACE_OUTER_BOUND('',#50,.T.);
#40=FACE_OUTER_BOUND('',#51,.T.);
#41=FACE_OUTER_BOUND('',#57,.T.);
#42=EDGE_LOOP('',(#152,#153,#154,#155));
#43=EDGE_LOOP('',(#156,#157,#158,#159));
#44=EDGE_LOOP('',(#160,#161,#162,#163));
#45=EDGE_LOOP('',(#164,#165,#166,#167));
#46=EDGE_LOOP('',(#168,#169,#170,#171));
#47=EDGE_LOOP('',(#172,#173,#174,#175));
#48=EDGE_LOOP('',(#176,#177,#178,#179));
#49=EDGE_LOOP('',(#180,#181,#182,#183));
#50=EDGE_LOOP('',(#184,#185,#186,#187));
#51=EDGE_LOOP('',(#188,#189,#190,#191));
#52=EDGE_LOOP('',(#192));
#53=EDGE_LOOP('',(#193));
#54=EDGE_LOOP('',(#194));
#55=EDGE_LOOP('',(#195));
#56=EDGE_LOOP('',(#196));
#57=EDGE_LOOP('',(#197,#198,#199,#200));
#58=EDGE_LOOP('',(#201));
#59=EDGE_LOOP('',(#202));
#60=EDGE_LOOP('',(#203));
#61=EDGE_LOOP('',(#204));
#62=EDGE_LOOP('',(#205));
#63=LINE('',#323,#80);
#64=LINE('',#329,#81);
#65=LINE('',#335,#82);
#66=LINE('',#341,#83);
#67=LINE('',#347,#84);
#68=LINE('',#352,#85);
#69=LINE('',#354,#86);
#70=LINE('',#356,#87);
#71=LINE('',#357,#88);
#72=LINE('',#360,#89);
#73=LINE('',#362,#90);
#74=LINE('',#363,#91);
#75=LINE('',#366,#92);
#76=LINE('',#368,#93);
#77=LINE('',#369,#94);
#78=LINE('',#371,#95);
#79=LINE('',#372,#96);
#80=VECTOR('',#263,8.);
#81=VECTOR('',#270,30.);
#82=VECTOR('',#277,8.);
#83=VECTOR('',#284,8.);
#84=VECTOR('',#291,8.);
#85=VECTOR('',#296,10.);
#86=VECTOR('',#297,10.);
#87=VECTOR('',#298,10.);
#88=VECTOR('',#299,10.);
#89=VECTOR('',#302,10.);
#90=VECTOR('',#303,10.);
#91=VECTOR('',#304,10.);
#92=VECTOR('',#307,10.);
#93=VECTOR('',#308,10.);
#94=VECTOR('',#309,10.);
#95=VECTOR('',#312,10.);
#96=VECTOR('',#313,10.);
#97=CIRCLE('',#237,8.);
#98=CIRCLE('',#238,8.);
#99=CIRCLE('',#240,30.);
#100=CIRCLE('',#241,30.);
#101=CIRCLE('',#243,8.);
#102=CIRCLE('',#244,8.);
#103=CIRCLE('',#246,8.);
#104=CIRCLE('',#247,8.);
#105=CIRCLE('',#249,8.);
#106=CIRCLE('',#250,8.);
#107=VERTEX_POINT('',#320);
#108=VERTEX_POINT('',#322);
#109=VERTEX_POINT('',#326);
#110=VERTEX_POINT('',#328);
#111=VERTEX_POINT('',#332);
#112=VERTEX_POINT('',#334);
#113=VERTEX_POINT('',#338);
#114=VERTEX_POINT('',#340);
#115=VERTEX_POINT('',#344);
#116=VERTEX_POINT('',#346);
#117=VERTEX_POINT('',#350);
#118=VERTEX_POINT('',#351);
#119=VERTEX_POINT('',#353);
#120=VERTEX_POINT('',#355);
#121=VERTEX_POINT('',#359);
#122=VERTEX_POINT('',#361);
#123=VERTEX_POINT('',#365);
#124=VERTEX_POINT('',#367);
#125=EDGE_CURVE('',#107,#107,#97,.T.);
#126=EDGE_CURVE('',#107,#108,#63,.T.);
#127=EDGE_CURVE('',#108,#108,#98,.T.);
#128=EDGE_CURVE('',#109,#109,#99,.T.);
#129=EDGE_CURVE('',#109,#110,#64,.T.);
#130=EDGE_CURVE('',#110,#110,#100,.T.);
#131=EDGE_CURVE('',#111,#111,#101,.T.);
#132=EDGE_CURVE('',#111,#112,#65,.T.);
#133=EDGE_CURVE('',#112,#112,#102,.T.);
#134=EDGE_CURVE('',#113,#113,#103,.T.);
#135=EDGE_CURVE('',#113,#114,#66,.T.);
#136=EDGE_CURVE('',#114,#114,#104,.T.);
#137=EDGE_CURVE('',#115,#115,#105,.T.);
#138=EDGE_CURVE('',#115,#116,#67,.T.);
#139=EDGE_CURVE('',#116,#116,#106,.T.);
#140=EDGE_CURVE('',#117,#118,#68,.T.);
#141=EDGE_CURVE('',#117,#119,#69,.T.);
#142=EDGE_CURVE('',#120,#119,#70,.T.);
#143=EDGE_CURVE('',#118,#120,#71,.T.);
#144=EDGE_CURVE('',#118,#121,#72,.T.);
#145=EDGE_CURVE('',#122,#120,#73,.T.);
#146=EDGE_CURVE('',#121,#122,#74,.T.);
#147=EDGE_CURVE('',#121,#123,#75,.T.);
#148=EDGE_CURVE('',#124,#122,#76,.T.);
#149=EDGE_CURVE('',#123,#124,#77,.T.);
#150=EDGE_CURVE('',#123,#117,#78,.T.);
#151=EDGE_CURVE('',#119,#124,#79,.T.);
#152=ORIENTED_EDGE('',*,*,#125,.F.);
#153=ORIENTED_EDGE('',*,*,#126,.T.);
#154=ORIENTED_EDGE('',*,*,#127,.F.);
#155=ORIENTED_EDGE('',*,*,#126,.F.);
#156=ORIENTED_EDGE('',*,*,#128,.F.);
#157=ORIENTED_EDGE('',*,*,#129,.T.);
#158=ORIENTED_EDGE('',*,*,#130,.F.);
#159=ORIENTED_EDGE('',*,*,#129,.F.);
#160=ORIENTED_EDGE('',*,*,#131,.F.);
#161=ORIENTED_EDGE('',*,*,#132,.T.);
#162=ORIENTED_EDGE('',*,*,#133,.F.);
#163=ORIENTED_EDGE('',*,*,#132,.F.);
#164=ORIENTED_EDGE('',*,*,#134,.F.);
#165=ORIENTED_EDGE('',*,*,#135,.T.);
#166=ORIENTED_EDGE('',*,*,#136,.F.);
#167=ORIENTED_EDGE('',*,*,#135,.F.);
#168=ORIENTED_EDGE('',*,*,#137,.F.);
#169=ORIENTED_EDGE('',*,*,#138,.T.);
#170=ORIENTED_EDGE('',*,*,#139,.F.);
#171=ORIENTED_EDGE('',*,*,#138,.F.);
#172=ORIENTED_EDGE('',*,*,#140,.F.);
#173=ORIENTED_EDGE('',*,*,#141,.T.);
#174=ORIENTED_EDGE('',*,*,#142,.F.);
#175=ORIENTED_EDGE('',*,*,#143,.F.);
#176=ORIENTED_EDGE('',*,*,#144,.F.);
#177=ORIENTED_EDGE('',*,*,#143,.T.);
#178=ORIENTED_EDGE('',*,*,#145,.F.);
#179=ORIENTED_EDGE('',*,*,#146,.F.);
#180=ORIENTED_EDGE('',*,*,#147,.F.);
#181=ORIENTED_EDGE('',*,*,#146,.T.);
#182=ORIENTED_EDGE('',*,*,#148,.F.);
#183=ORIENTED_EDGE('',*,*,#149,.F.);
#184=ORIENTED_EDGE('',*,*,#150,.F.);
#185=ORIENTED_EDGE('',*,*,#149,.T.);
#186=ORIENTED_EDGE('',*,*,#151,.F.);
#187=ORIENTED_EDGE('',*,*,#141,.F.);
#188=ORIENTED_EDGE('',*,*,#151,.T.);
#189=ORIENTED_EDGE('',*,*,#148,.T.);
#190=ORIENTED_EDGE('',*,*,#145,.T.);
#191=ORIENTED_EDGE('',*,*,#142,.T.);
#192=ORIENTED_EDGE('',*,*,#137,.T.);
#193=ORIENTED_EDGE('',*,*,#134,.T.);
#194=ORIENTED_EDGE('',*,*,#131,.T.);
#195=ORIENTED_EDGE('',*,*,#128,.T.);
#196=ORIENTED_EDGE('',*,*,#125,.T.);
#197=ORIENTED_EDGE('',*,*,#150,.T.);
#198=ORIENTED_EDGE('',*,*,#140,.T.);
#199=ORIENTED_EDGE('',*,*,#144,.T.);
#200=ORIENTED_EDGE('',*,*,#147,.T.);
#201=ORIENTED_EDGE('',*,*,#139,.T.);
#202=ORIENTED_EDGE('',*,*,#136,.T.);
#203=ORIENTED_EDGE('',*,*,#133,.T.);
#204=ORIENTED_EDGE('',*,*,#130,.T.);
#205=ORIENTED_EDGE('',*,*,#127,.T.);
#206=CYLINDRICAL_SURFACE('',#236,8.);
#207=CYLINDRICAL_SURFACE('',#239,30.);
#208=CYLINDRICAL_SURFACE('',#242,8.);
#209=CYLINDRICAL_SURFACE('',#245,8.);
#210=CYLINDRICAL_SURFACE('',#248,8.);
#211=ADVANCED_FACE('',(#31),#206,.F.);
#212=ADVANCED_FACE('',(#32),#207,.F.);
#213=ADVANCED_FACE('',(#33),#208,.F.);
#214=ADVANCED_FACE('',(#34),#209,.F.);
#215=ADVANCED_FACE('',(#35),#210,.F.);
#216=ADVANCED_FACE('',(#36),#25,.T.);
#217=ADVANCED_FACE('',(#37),#26,.T.);
#218=ADVANCED_FACE('',(#38),#27,.T.);
#219=ADVANCED_FACE('',(#39),#28,.T.);
#220=ADVANCED_FACE('',(#40,#15,#16,#17,#18,#19),#29,.T.);
#221=ADVANCED_FACE('',(#41,#20,#21,#22,#23,#24),#30,.F.);
#222=CLOSED_SHELL('',(#211,#212,#213,#214,#215,#216,#217,#218,#219,#220,
#221));
#223=DERIVED_UNIT_ELEMENT(#225,1.);
#224=DERIVED_UNIT_ELEMENT(#380,3.);
#225=(
MASS_UNIT()
NAMED_UNIT(*)
SI_UNIT(.KILO.,.GRAM.)
);
#226=DERIVED_UNIT((#223,#224));
#227=MEASURE_REPRESENTATION_ITEM('density measure',
POSITIVE_RATIO_MEASURE(7850.),#226);
#228=PROPERTY_DEFINITION_REPRESENTATION(#233,#230);
#229=PROPERTY_DEFINITION_REPRESENTATION(#234,#231);
#230=REPRESENTATION('material name',(#232),#377);
#231=REPRESENTATION('density',(#227),#377);
#232=DESCRIPTIVE_REPRESENTATION_ITEM('Steel','Steel');
#233=PROPERTY_DEFINITION('material property','material name',#387);
#234=PROPERTY_DEFINITION('material property','density of part',#387);
#235=AXIS2_PLACEMENT_3D('placement',#318,#257,#258);
#236=AXIS2_PLACEMENT_3D('',#319,#259,#260);
#237=AXIS2_PLACEMENT_3D('',#321,#261,#262);
#238=AXIS2_PLACEMENT_3D('',#324,#264,#265);
#239=AXIS2_PLACEMENT_3D('',#325,#266,#267);
#240=AXIS2_PLACEMENT_3D('',#327,#268,#269);
#241=AXIS2_PLACEMENT_3D('',#330,#271,#272);
#242=AXIS2_PLACEMENT_3D('',#331,#273,#274);
#243=AXIS2_PLACEMENT_3D('',#333,#275,#276);
#244=AXIS2_PLACEMENT_3D('',#336,#278,#279);
#245=AXIS2_PLACEMENT_3D('',#337,#280,#281);
#246=AXIS2_PLACEMENT_3D('',#339,#282,#283);
#247=AXIS2_PLACEMENT_3D('',#342,#285,#286);
#248=AXIS2_PLACEMENT_3D('',#343,#287,#288);
#249=AXIS2_PLACEMENT_3D('',#345,#289,#290);
#250=AXIS2_PLACEMENT_3D('',#348,#292,#293);
#251=AXIS2_PLACEMENT_3D('',#349,#294,#295);
#252=AXIS2_PLACEMENT_3D('',#358,#300,#301);
#253=AXIS2_PLACEMENT_3D('',#364,#305,#306);
#254=AXIS2_PLACEMENT_3D('',#370,#310,#311);
#255=AXIS2_PLACEMENT_3D('',#373,#314,#315);
#256=AXIS2_PLACEMENT_3D('',#374,#316,#317);
#257=DIRECTION('axis',(0.,0.,1.));
#258=DIRECTION('refdir',(1.,0.,0.));
#259=DIRECTION('center_axis',(0.,0.,1.));
#260=DIRECTION('ref_axis',(1.,0.,0.));
#261=DIRECTION('center_axis',(0.,0.,-1.));
#262=DIRECTION('ref_axis',(1.,0.,0.));
#263=DIRECTION('',(0.,0.,-1.));
#264=DIRECTION('center_axis',(0.,0.,1.));
#265=DIRECTION('ref_axis',(1.,0.,0.));
#266=DIRECTION('center_axis',(0.,0.,1.));
#267=DIRECTION('ref_axis',(1.,0.,0.));
#268=DIRECTION('center_axis',(0.,0.,-1.));
#269=DIRECTION('ref_axis',(1.,0.,0.));
#270=DIRECTION('',(0.,0.,-1.));
#271=DIRECTION('center_axis',(0.,0.,1.));
#272=DIRECTION('ref_axis',(1.,0.,0.));
#273=DIRECTION('center_axis',(0.,0.,1.));
#274=DIRECTION('ref_axis',(1.,0.,0.));
#275=DIRECTION('center_axis',(0.,0.,-1.));
#276=DIRECTION('ref_axis',(1.,0.,0.));
#277=DIRECTION('',(0.,0.,-1.));
#278=DIRECTION('center_axis',(0.,0.,1.));
#279=DIRECTION('ref_axis',(1.,0.,0.));
#280=DIRECTION('center_axis',(0.,0.,1.));
#281=DIRECTION('ref_axis',(1.,0.,0.));
#282=DIRECTION('center_axis',(0.,0.,-1.));
#283=DIRECTION('ref_axis',(1.,0.,0.));
#284=DIRECTION('',(0.,0.,-1.));
#285=DIRECTION('center_axis',(0.,0.,1.));
#286=DIRECTION('ref_axis',(1.,0.,0.));
#287=DIRECTION('center_axis',(0.,0.,1.));
#288=DIRECTION('ref_axis',(1.,0.,0.));
#289=DIRECTION('center_axis',(0.,0.,-1.));
#290=DIRECTION('ref_axis',(1.,0.,0.));
#291=DIRECTION('',(0.,0.,-1.));
#292=DIRECTION('center_axis',(0.,0.,1.));
#293=DIRECTION('ref_axis',(1.,0.,0.));
#294=DIRECTION('center_axis',(0.,1.,0.));
#295=DIRECTION('ref_axis',(-1.,0.,0.));
#296=DIRECTION('',(1.,0.,0.));
#297=DIRECTION('',(0.,0.,1.));
#298=DIRECTION('',(-1.,0.,0.));
#299=DIRECTION('',(0.,0.,1.));
#300=DIRECTION('center_axis',(1.,0.,0.));
#301=DIRECTION('ref_axis',(0.,1.,0.));
#302=DIRECTION('',(0.,-1.,0.));
#303=DIRECTION('',(0.,1.,0.));
#304=DIRECTION('',(0.,0.,1.));
#305=DIRECTION('center_axis',(0.,-1.,0.));
#306=DIRECTION('ref_axis',(1.,0.,0.));
#307=DIRECTION('',(-1.,0.,0.));
#308=DIRECTION('',(1.,0.,0.));
#309=DIRECTION('',(0.,0.,1.));
#310=DIRECTION('center_axis',(-1.,0.,0.));
#311=DIRECTION('ref_axis',(0.,-1.,0.));
#312=DIRECTION('',(0.,1.,0.));
#313=DIRECTION('',(0.,-1.,0.));
#314=DIRECTION('center_axis',(0.,0.,1.));
#315=DIRECTION('ref_axis',(1.,0.,0.));
#316=DIRECTION('center_axis',(0.,0.,1.));
#317=DIRECTION('ref_axis',(1.,0.,0.));
#318=CARTESIAN_POINT('',(0.,0.,0.));
#319=CARTESIAN_POINT('Origin',(50.,50.,0.));
#320=CARTESIAN_POINT('',(42.,50.,20.));
#321=CARTESIAN_POINT('Origin',(50.,50.,20.));
#322=CARTESIAN_POINT('',(42.,50.,0.));
#323=CARTESIAN_POINT('',(42.,50.,0.));
#324=CARTESIAN_POINT('Origin',(50.,50.,0.));
#325=CARTESIAN_POINT('Origin',(0.,0.,0.));
#326=CARTESIAN_POINT('',(-30.,0.,20.));
#327=CARTESIAN_POINT('Origin',(0.,0.,20.));
#328=CARTESIAN_POINT('',(-30.,-3.67394039744206E-15,0.));
#329=CARTESIAN_POINT('',(-30.,-3.67394039744206E-15,0.));
#330=CARTESIAN_POINT('Origin',(0.,0.,0.));
#331=CARTESIAN_POINT('Origin',(-50.,50.,0.));
#332=CARTESIAN_POINT('',(-58.,50.,20.));
#333=CARTESIAN_POINT('Origin',(-50.,50.,20.));
#334=CARTESIAN_POINT('',(-58.,50.,0.));
#335=CARTESIAN_POINT('',(-58.,50.,0.));
#336=CARTESIAN_POINT('Origin',(-50.,50.,0.));
#337=CARTESIAN_POINT('Origin',(-50.,-50.,0.));
#338=CARTESIAN_POINT('',(-58.,-50.,20.));
#339=CARTESIAN_POINT('Origin',(-50.,-50.,20.));
#340=CARTESIAN_POINT('',(-58.,-50.,0.));
#341=CARTESIAN_POINT('',(-58.,-50.,0.));
#342=CARTESIAN_POINT('Origin',(-50.,-50.,0.));
#343=CARTESIAN_POINT('Origin',(50.,-50.,0.));
#344=CARTESIAN_POINT('',(42.,-50.,20.));
#345=CARTESIAN_POINT('Origin',(50.,-50.,20.));
#346=CARTESIAN_POINT('',(42.,-50.,0.));
#347=CARTESIAN_POINT('',(42.,-50.,0.));
#348=CARTESIAN_POINT('Origin',(50.,-50.,0.));
#349=CARTESIAN_POINT('Origin',(75.,75.,0.));
#350=CARTESIAN_POINT('',(-75.,75.,0.));
#351=CARTESIAN_POINT('',(75.,75.,0.));
#352=CARTESIAN_POINT('',(0.,75.,0.));
#353=CARTESIAN_POINT('',(-75.,75.,20.));
#354=CARTESIAN_POINT('',(-75.,75.,0.));
#355=CARTESIAN_POINT('',(75.,75.,20.));
#356=CARTESIAN_POINT('',(0.,75.,20.));
#357=CARTESIAN_POINT('',(75.,75.,0.));
#358=CARTESIAN_POINT('Origin',(75.,-75.,0.));
#359=CARTESIAN_POINT('',(75.,-75.,0.));
#360=CARTESIAN_POINT('',(75.,75.,0.));
#361=CARTESIAN_POINT('',(75.,-75.,20.));
#362=CARTESIAN_POINT('',(75.,75.,20.));
#363=CARTESIAN_POINT('',(75.,-75.,0.));
#364=CARTESIAN_POINT('Origin',(-75.,-75.,0.));
#365=CARTESIAN_POINT('',(-75.,-75.,0.));
#366=CARTESIAN_POINT('',(75.,-75.,0.));
#367=CARTESIAN_POINT('',(-75.,-75.,20.));
#368=CARTESIAN_POINT('',(75.,-75.,20.));
#369=CARTESIAN_POINT('',(-75.,-75.,0.));
#370=CARTESIAN_POINT('Origin',(-75.,75.,0.));
#371=CARTESIAN_POINT('',(-75.,-75.,0.));
#372=CARTESIAN_POINT('',(-75.,-75.,20.));
#373=CARTESIAN_POINT('Origin',(0.,0.,20.));
#374=CARTESIAN_POINT('Origin',(0.,0.,0.));
#375=UNCERTAINTY_MEASURE_WITH_UNIT(LENGTH_MEASURE(0.01),#379,
'DISTANCE_ACCURACY_VALUE',
'Maximum model space distance between geometric entities at asserted c
onnectivities');
#376=UNCERTAINTY_MEASURE_WITH_UNIT(LENGTH_MEASURE(0.01),#379,
'DISTANCE_ACCURACY_VALUE',
'Maximum model space distance between geometric entities at asserted c
onnectivities');
#377=(
GEOMETRIC_REPRESENTATION_CONTEXT(3)
GLOBAL_UNCERTAINTY_ASSIGNED_CONTEXT((#375))
GLOBAL_UNIT_ASSIGNED_CONTEXT((#379,#381,#382))
REPRESENTATION_CONTEXT('','3D')
);
#378=(
GEOMETRIC_REPRESENTATION_CONTEXT(3)
GLOBAL_UNCERTAINTY_ASSIGNED_CONTEXT((#376))
GLOBAL_UNIT_ASSIGNED_CONTEXT((#379,#381,#382))
REPRESENTATION_CONTEXT('','3D')
);
#379=(
LENGTH_UNIT()
NAMED_UNIT(*)
SI_UNIT(.MILLI.,.METRE.)
);
#380=(
LENGTH_UNIT()
NAMED_UNIT(*)
SI_UNIT($,.METRE.)
);
#381=(
NAMED_UNIT(*)
PLANE_ANGLE_UNIT()
SI_UNIT($,.RADIAN.)
);
#382=(
NAMED_UNIT(*)
SI_UNIT($,.STERADIAN.)
SOLID_ANGLE_UNIT()
);
#383=SHAPE_DEFINITION_REPRESENTATION(#384,#385);
#384=PRODUCT_DEFINITION_SHAPE('',$,#387);
#385=SHAPE_REPRESENTATION('',(#235),#377);
#386=PRODUCT_DEFINITION_CONTEXT('part definition',#391,'design');
#387=PRODUCT_DEFINITION('EBL-PL6-SQ','EBL-PL6-SQ',#388,#386);
#388=PRODUCT_DEFINITION_FORMATION('',$,#393);
#389=PRODUCT_RELATED_PRODUCT_CATEGORY('EBL-PL6-SQ','EBL-PL6-SQ',(#393));
#390=APPLICATION_PROTOCOL_DEFINITION('international standard',
'automotive_design',2009,#391);
#391=APPLICATION_CONTEXT(
'Core Data for Automotive Mechanical Design Process');
#392=PRODUCT_CONTEXT('part definition',#391,'mechanical');
#393=PRODUCT('EBL-PL6-SQ','EBL-PL6-SQ',$,(#392));
#394=PRESENTATION_STYLE_ASSIGNMENT((#395));
#395=SURFACE_STYLE_USAGE(.BOTH.,#396);
#396=SURFACE_SIDE_STYLE('',(#397));
#397=SURFACE_STYLE_FILL_AREA(#398);
#398=FILL_AREA_STYLE('Steel - Satin',(#399));
#399=FILL_AREA_STYLE_COLOUR('Steel - Satin',#400);
#400=COLOUR_RGB('Steel - Satin',0.627450980392157,0.627450980392157,0.627450980392157);
ENDSEC;
END-ISO-10303-21;
