ISO-10303-21;
HEADER;
/* Generated by software containing ST-Developer
 * from STEP Tools, Inc. (www.steptools.com) 
 */

FILE_DESCRIPTION(
/* description */ (''),
/* implementation_level */ '2;1');

FILE_NAME(
/* name */ '/Users/matt/Desktop/PLATES dwg/EBL-PL0.step',
/* time_stamp */ '2020-08-07T15:26:34+01:00',
/* author */ (''),
/* organization */ (''),
/* preprocessor_version */ 'ST-DEVELOPER v18.1',
/* originating_system */ 'Autodesk Translation Framework v9.3.0.1241',
/* authorisation */ '');

FILE_SCHEMA (('AUTOMOTIVE_DESIGN { 1 0 10303 214 3 1 1 }'));
ENDSEC;

DATA;
#10=MECHANICAL_DESIGN_GEOMETRIC_PRESENTATION_REPRESENTATION('',(#13),#612);
#11=SHAPE_REPRESENTATION_RELATIONSHIP('SRR','None',#619,#12);
#12=ADVANCED_BREP_SHAPE_REPRESENTATION('',(#14),#611);
#13=STYLED_ITEM('',(#628),#14);
#14=MANIFOLD_SOLID_BREP('Body1',#360);
#15=FACE_BOUND('',#76,.T.);
#16=FACE_BOUND('',#77,.T.);
#17=FACE_BOUND('',#78,.T.);
#18=FACE_BOUND('',#79,.T.);
#19=FACE_BOUND('',#80,.T.);
#20=FACE_BOUND('',#81,.T.);
#21=FACE_BOUND('',#82,.T.);
#22=FACE_BOUND('',#83,.T.);
#23=FACE_BOUND('',#84,.T.);
#24=FACE_BOUND('',#85,.T.);
#25=FACE_BOUND('',#86,.T.);
#26=FACE_BOUND('',#88,.T.);
#27=FACE_BOUND('',#89,.T.);
#28=FACE_BOUND('',#90,.T.);
#29=FACE_BOUND('',#91,.T.);
#30=FACE_BOUND('',#92,.T.);
#31=FACE_BOUND('',#93,.T.);
#32=FACE_BOUND('',#94,.T.);
#33=FACE_BOUND('',#95,.T.);
#34=FACE_BOUND('',#96,.T.);
#35=FACE_BOUND('',#97,.T.);
#36=FACE_BOUND('',#98,.T.);
#37=PLANE('',#407);
#38=PLANE('',#408);
#39=PLANE('',#409);
#40=PLANE('',#410);
#41=PLANE('',#411);
#42=PLANE('',#412);
#43=FACE_OUTER_BOUND('',#60,.T.);
#44=FACE_OUTER_BOUND('',#61,.T.);
#45=FACE_OUTER_BOUND('',#62,.T.);
#46=FACE_OUTER_BOUND('',#63,.T.);
#47=FACE_OUTER_BOUND('',#64,.T.);
#48=FACE_OUTER_BOUND('',#65,.T.);
#49=FACE_OUTER_BOUND('',#66,.T.);
#50=FACE_OUTER_BOUND('',#67,.T.);
#51=FACE_OUTER_BOUND('',#68,.T.);
#52=FACE_OUTER_BOUND('',#69,.T.);
#53=FACE_OUTER_BOUND('',#70,.T.);
#54=FACE_OUTER_BOUND('',#71,.T.);
#55=FACE_OUTER_BOUND('',#72,.T.);
#56=FACE_OUTER_BOUND('',#73,.T.);
#57=FACE_OUTER_BOUND('',#74,.T.);
#58=FACE_OUTER_BOUND('',#75,.T.);
#59=FACE_OUTER_BOUND('',#87,.T.);
#60=EDGE_LOOP('',(#242,#243,#244,#245));
#61=EDGE_LOOP('',(#246,#247,#248,#249));
#62=EDGE_LOOP('',(#250,#251,#252,#253));
#63=EDGE_LOOP('',(#254,#255,#256,#257));
#64=EDGE_LOOP('',(#258,#259,#260,#261));
#65=EDGE_LOOP('',(#262,#263,#264,#265));
#66=EDGE_LOOP('',(#266,#267,#268,#269));
#67=EDGE_LOOP('',(#270,#271,#272,#273));
#68=EDGE_LOOP('',(#274,#275,#276,#277));
#69=EDGE_LOOP('',(#278,#279,#280,#281));
#70=EDGE_LOOP('',(#282,#283,#284,#285));
#71=EDGE_LOOP('',(#286,#287,#288,#289));
#72=EDGE_LOOP('',(#290,#291,#292,#293));
#73=EDGE_LOOP('',(#294,#295,#296,#297));
#74=EDGE_LOOP('',(#298,#299,#300,#301));
#75=EDGE_LOOP('',(#302,#303,#304,#305));
#76=EDGE_LOOP('',(#306));
#77=EDGE_LOOP('',(#307));
#78=EDGE_LOOP('',(#308));
#79=EDGE_LOOP('',(#309));
#80=EDGE_LOOP('',(#310));
#81=EDGE_LOOP('',(#311));
#82=EDGE_LOOP('',(#312));
#83=EDGE_LOOP('',(#313));
#84=EDGE_LOOP('',(#314));
#85=EDGE_LOOP('',(#315));
#86=EDGE_LOOP('',(#316));
#87=EDGE_LOOP('',(#317,#318,#319,#320));
#88=EDGE_LOOP('',(#321));
#89=EDGE_LOOP('',(#322));
#90=EDGE_LOOP('',(#323));
#91=EDGE_LOOP('',(#324));
#92=EDGE_LOOP('',(#325));
#93=EDGE_LOOP('',(#326));
#94=EDGE_LOOP('',(#327));
#95=EDGE_LOOP('',(#328));
#96=EDGE_LOOP('',(#329));
#97=EDGE_LOOP('',(#330));
#98=EDGE_LOOP('',(#331));
#99=LINE('',#521,#122);
#100=LINE('',#527,#123);
#101=LINE('',#533,#124);
#102=LINE('',#539,#125);
#103=LINE('',#545,#126);
#104=LINE('',#551,#127);
#105=LINE('',#557,#128);
#106=LINE('',#563,#129);
#107=LINE('',#569,#130);
#108=LINE('',#575,#131);
#109=LINE('',#581,#132);
#110=LINE('',#586,#133);
#111=LINE('',#588,#134);
#112=LINE('',#590,#135);
#113=LINE('',#591,#136);
#114=LINE('',#594,#137);
#115=LINE('',#596,#138);
#116=LINE('',#597,#139);
#117=LINE('',#600,#140);
#118=LINE('',#602,#141);
#119=LINE('',#603,#142);
#120=LINE('',#605,#143);
#121=LINE('',#606,#144);
#122=VECTOR('',#419,5.25);
#123=VECTOR('',#426,5.);
#124=VECTOR('',#433,4.);
#125=VECTOR('',#440,5.25);
#126=VECTOR('',#447,5.);
#127=VECTOR('',#454,4.);
#128=VECTOR('',#461,5.25);
#129=VECTOR('',#468,3.);
#130=VECTOR('',#475,3.);
#131=VECTOR('',#482,15.);
#132=VECTOR('',#489,5.25);
#133=VECTOR('',#494,10.);
#134=VECTOR('',#495,10.);
#135=VECTOR('',#496,10.);
#136=VECTOR('',#497,10.);
#137=VECTOR('',#500,10.);
#138=VECTOR('',#501,10.);
#139=VECTOR('',#502,10.);
#140=VECTOR('',#505,10.);
#141=VECTOR('',#506,10.);
#142=VECTOR('',#507,10.);
#143=VECTOR('',#510,10.);
#144=VECTOR('',#511,10.);
#145=CIRCLE('',#375,5.25);
#146=CIRCLE('',#376,5.25);
#147=CIRCLE('',#378,5.);
#148=CIRCLE('',#379,5.);
#149=CIRCLE('',#381,4.);
#150=CIRCLE('',#382,4.);
#151=CIRCLE('',#384,5.25);
#152=CIRCLE('',#385,5.25);
#153=CIRCLE('',#387,5.);
#154=CIRCLE('',#388,5.);
#155=CIRCLE('',#390,4.);
#156=CIRCLE('',#391,4.);
#157=CIRCLE('',#393,5.25);
#158=CIRCLE('',#394,5.25);
#159=CIRCLE('',#396,3.);
#160=CIRCLE('',#397,3.);
#161=CIRCLE('',#399,3.);
#162=CIRCLE('',#400,3.);
#163=CIRCLE('',#402,15.);
#164=CIRCLE('',#403,15.);
#165=CIRCLE('',#405,5.25);
#166=CIRCLE('',#406,5.25);
#167=VERTEX_POINT('',#518);
#168=VERTEX_POINT('',#520);
#169=VERTEX_POINT('',#524);
#170=VERTEX_POINT('',#526);
#171=VERTEX_POINT('',#530);
#172=VERTEX_POINT('',#532);
#173=VERTEX_POINT('',#536);
#174=VERTEX_POINT('',#538);
#175=VERTEX_POINT('',#542);
#176=VERTEX_POINT('',#544);
#177=VERTEX_POINT('',#548);
#178=VERTEX_POINT('',#550);
#179=VERTEX_POINT('',#554);
#180=VERTEX_POINT('',#556);
#181=VERTEX_POINT('',#560);
#182=VERTEX_POINT('',#562);
#183=VERTEX_POINT('',#566);
#184=VERTEX_POINT('',#568);
#185=VERTEX_POINT('',#572);
#186=VERTEX_POINT('',#574);
#187=VERTEX_POINT('',#578);
#188=VERTEX_POINT('',#580);
#189=VERTEX_POINT('',#584);
#190=VERTEX_POINT('',#585);
#191=VERTEX_POINT('',#587);
#192=VERTEX_POINT('',#589);
#193=VERTEX_POINT('',#593);
#194=VERTEX_POINT('',#595);
#195=VERTEX_POINT('',#599);
#196=VERTEX_POINT('',#601);
#197=EDGE_CURVE('',#167,#167,#145,.T.);
#198=EDGE_CURVE('',#167,#168,#99,.T.);
#199=EDGE_CURVE('',#168,#168,#146,.T.);
#200=EDGE_CURVE('',#169,#169,#147,.T.);
#201=EDGE_CURVE('',#169,#170,#100,.T.);
#202=EDGE_CURVE('',#170,#170,#148,.T.);
#203=EDGE_CURVE('',#171,#171,#149,.T.);
#204=EDGE_CURVE('',#171,#172,#101,.T.);
#205=EDGE_CURVE('',#172,#172,#150,.T.);
#206=EDGE_CURVE('',#173,#173,#151,.T.);
#207=EDGE_CURVE('',#173,#174,#102,.T.);
#208=EDGE_CURVE('',#174,#174,#152,.T.);
#209=EDGE_CURVE('',#175,#175,#153,.T.);
#210=EDGE_CURVE('',#175,#176,#103,.T.);
#211=EDGE_CURVE('',#176,#176,#154,.T.);
#212=EDGE_CURVE('',#177,#177,#155,.T.);
#213=EDGE_CURVE('',#177,#178,#104,.T.);
#214=EDGE_CURVE('',#178,#178,#156,.T.);
#215=EDGE_CURVE('',#179,#179,#157,.T.);
#216=EDGE_CURVE('',#179,#180,#105,.T.);
#217=EDGE_CURVE('',#180,#180,#158,.T.);
#218=EDGE_CURVE('',#181,#181,#159,.T.);
#219=EDGE_CURVE('',#181,#182,#106,.T.);
#220=EDGE_CURVE('',#182,#182,#160,.T.);
#221=EDGE_CURVE('',#183,#183,#161,.T.);
#222=EDGE_CURVE('',#183,#184,#107,.T.);
#223=EDGE_CURVE('',#184,#184,#162,.T.);
#224=EDGE_CURVE('',#185,#185,#163,.T.);
#225=EDGE_CURVE('',#185,#186,#108,.T.);
#226=EDGE_CURVE('',#186,#186,#164,.T.);
#227=EDGE_CURVE('',#187,#187,#165,.T.);
#228=EDGE_CURVE('',#187,#188,#109,.T.);
#229=EDGE_CURVE('',#188,#188,#166,.T.);
#230=EDGE_CURVE('',#189,#190,#110,.T.);
#231=EDGE_CURVE('',#189,#191,#111,.T.);
#232=EDGE_CURVE('',#192,#191,#112,.T.);
#233=EDGE_CURVE('',#190,#192,#113,.T.);
#234=EDGE_CURVE('',#190,#193,#114,.T.);
#235=EDGE_CURVE('',#194,#192,#115,.T.);
#236=EDGE_CURVE('',#193,#194,#116,.T.);
#237=EDGE_CURVE('',#193,#195,#117,.T.);
#238=EDGE_CURVE('',#196,#194,#118,.T.);
#239=EDGE_CURVE('',#195,#196,#119,.T.);
#240=EDGE_CURVE('',#195,#189,#120,.T.);
#241=EDGE_CURVE('',#191,#196,#121,.T.);
#242=ORIENTED_EDGE('',*,*,#197,.F.);
#243=ORIENTED_EDGE('',*,*,#198,.T.);
#244=ORIENTED_EDGE('',*,*,#199,.F.);
#245=ORIENTED_EDGE('',*,*,#198,.F.);
#246=ORIENTED_EDGE('',*,*,#200,.F.);
#247=ORIENTED_EDGE('',*,*,#201,.T.);
#248=ORIENTED_EDGE('',*,*,#202,.F.);
#249=ORIENTED_EDGE('',*,*,#201,.F.);
#250=ORIENTED_EDGE('',*,*,#203,.F.);
#251=ORIENTED_EDGE('',*,*,#204,.T.);
#252=ORIENTED_EDGE('',*,*,#205,.F.);
#253=ORIENTED_EDGE('',*,*,#204,.F.);
#254=ORIENTED_EDGE('',*,*,#206,.F.);
#255=ORIENTED_EDGE('',*,*,#207,.T.);
#256=ORIENTED_EDGE('',*,*,#208,.F.);
#257=ORIENTED_EDGE('',*,*,#207,.F.);
#258=ORIENTED_EDGE('',*,*,#209,.F.);
#259=ORIENTED_EDGE('',*,*,#210,.T.);
#260=ORIENTED_EDGE('',*,*,#211,.F.);
#261=ORIENTED_EDGE('',*,*,#210,.F.);
#262=ORIENTED_EDGE('',*,*,#212,.F.);
#263=ORIENTED_EDGE('',*,*,#213,.T.);
#264=ORIENTED_EDGE('',*,*,#214,.F.);
#265=ORIENTED_EDGE('',*,*,#213,.F.);
#266=ORIENTED_EDGE('',*,*,#215,.F.);
#267=ORIENTED_EDGE('',*,*,#216,.T.);
#268=ORIENTED_EDGE('',*,*,#217,.F.);
#269=ORIENTED_EDGE('',*,*,#216,.F.);
#270=ORIENTED_EDGE('',*,*,#218,.F.);
#271=ORIENTED_EDGE('',*,*,#219,.T.);
#272=ORIENTED_EDGE('',*,*,#220,.F.);
#273=ORIENTED_EDGE('',*,*,#219,.F.);
#274=ORIENTED_EDGE('',*,*,#221,.F.);
#275=ORIENTED_EDGE('',*,*,#222,.T.);
#276=ORIENTED_EDGE('',*,*,#223,.F.);
#277=ORIENTED_EDGE('',*,*,#222,.F.);
#278=ORIENTED_EDGE('',*,*,#224,.F.);
#279=ORIENTED_EDGE('',*,*,#225,.T.);
#280=ORIENTED_EDGE('',*,*,#226,.F.);
#281=ORIENTED_EDGE('',*,*,#225,.F.);
#282=ORIENTED_EDGE('',*,*,#227,.F.);
#283=ORIENTED_EDGE('',*,*,#228,.T.);
#284=ORIENTED_EDGE('',*,*,#229,.F.);
#285=ORIENTED_EDGE('',*,*,#228,.F.);
#286=ORIENTED_EDGE('',*,*,#230,.F.);
#287=ORIENTED_EDGE('',*,*,#231,.T.);
#288=ORIENTED_EDGE('',*,*,#232,.F.);
#289=ORIENTED_EDGE('',*,*,#233,.F.);
#290=ORIENTED_EDGE('',*,*,#234,.F.);
#291=ORIENTED_EDGE('',*,*,#233,.T.);
#292=ORIENTED_EDGE('',*,*,#235,.F.);
#293=ORIENTED_EDGE('',*,*,#236,.F.);
#294=ORIENTED_EDGE('',*,*,#237,.F.);
#295=ORIENTED_EDGE('',*,*,#236,.T.);
#296=ORIENTED_EDGE('',*,*,#238,.F.);
#297=ORIENTED_EDGE('',*,*,#239,.F.);
#298=ORIENTED_EDGE('',*,*,#240,.F.);
#299=ORIENTED_EDGE('',*,*,#239,.T.);
#300=ORIENTED_EDGE('',*,*,#241,.F.);
#301=ORIENTED_EDGE('',*,*,#231,.F.);
#302=ORIENTED_EDGE('',*,*,#241,.T.);
#303=ORIENTED_EDGE('',*,*,#238,.T.);
#304=ORIENTED_EDGE('',*,*,#235,.T.);
#305=ORIENTED_EDGE('',*,*,#232,.T.);
#306=ORIENTED_EDGE('',*,*,#227,.T.);
#307=ORIENTED_EDGE('',*,*,#224,.T.);
#308=ORIENTED_EDGE('',*,*,#221,.T.);
#309=ORIENTED_EDGE('',*,*,#218,.T.);
#310=ORIENTED_EDGE('',*,*,#215,.T.);
#311=ORIENTED_EDGE('',*,*,#212,.T.);
#312=ORIENTED_EDGE('',*,*,#209,.T.);
#313=ORIENTED_EDGE('',*,*,#206,.T.);
#314=ORIENTED_EDGE('',*,*,#203,.T.);
#315=ORIENTED_EDGE('',*,*,#200,.T.);
#316=ORIENTED_EDGE('',*,*,#197,.T.);
#317=ORIENTED_EDGE('',*,*,#240,.T.);
#318=ORIENTED_EDGE('',*,*,#230,.T.);
#319=ORIENTED_EDGE('',*,*,#234,.T.);
#320=ORIENTED_EDGE('',*,*,#237,.T.);
#321=ORIENTED_EDGE('',*,*,#229,.T.);
#322=ORIENTED_EDGE('',*,*,#226,.T.);
#323=ORIENTED_EDGE('',*,*,#223,.T.);
#324=ORIENTED_EDGE('',*,*,#220,.T.);
#325=ORIENTED_EDGE('',*,*,#217,.T.);
#326=ORIENTED_EDGE('',*,*,#214,.T.);
#327=ORIENTED_EDGE('',*,*,#211,.T.);
#328=ORIENTED_EDGE('',*,*,#208,.T.);
#329=ORIENTED_EDGE('',*,*,#205,.T.);
#330=ORIENTED_EDGE('',*,*,#202,.T.);
#331=ORIENTED_EDGE('',*,*,#199,.T.);
#332=CYLINDRICAL_SURFACE('',#374,5.25);
#333=CYLINDRICAL_SURFACE('',#377,5.);
#334=CYLINDRICAL_SURFACE('',#380,4.);
#335=CYLINDRICAL_SURFACE('',#383,5.25);
#336=CYLINDRICAL_SURFACE('',#386,5.);
#337=CYLINDRICAL_SURFACE('',#389,4.);
#338=CYLINDRICAL_SURFACE('',#392,5.25);
#339=CYLINDRICAL_SURFACE('',#395,3.);
#340=CYLINDRICAL_SURFACE('',#398,3.);
#341=CYLINDRICAL_SURFACE('',#401,15.);
#342=CYLINDRICAL_SURFACE('',#404,5.25);
#343=ADVANCED_FACE('',(#43),#332,.F.);
#344=ADVANCED_FACE('',(#44),#333,.F.);
#345=ADVANCED_FACE('',(#45),#334,.F.);
#346=ADVANCED_FACE('',(#46),#335,.F.);
#347=ADVANCED_FACE('',(#47),#336,.F.);
#348=ADVANCED_FACE('',(#48),#337,.F.);
#349=ADVANCED_FACE('',(#49),#338,.F.);
#350=ADVANCED_FACE('',(#50),#339,.F.);
#351=ADVANCED_FACE('',(#51),#340,.F.);
#352=ADVANCED_FACE('',(#52),#341,.F.);
#353=ADVANCED_FACE('',(#53),#342,.F.);
#354=ADVANCED_FACE('',(#54),#37,.T.);
#355=ADVANCED_FACE('',(#55),#38,.T.);
#356=ADVANCED_FACE('',(#56),#39,.T.);
#357=ADVANCED_FACE('',(#57),#40,.T.);
#358=ADVANCED_FACE('',(#58,#15,#16,#17,#18,#19,#20,#21,#22,#23,#24,#25),
#41,.T.);
#359=ADVANCED_FACE('',(#59,#26,#27,#28,#29,#30,#31,#32,#33,#34,#35,#36),
#42,.F.);
#360=CLOSED_SHELL('',(#343,#344,#345,#346,#347,#348,#349,#350,#351,#352,
#353,#354,#355,#356,#357,#358,#359));
#361=DERIVED_UNIT_ELEMENT(#363,1.);
#362=DERIVED_UNIT_ELEMENT(#614,3.);
#363=(
MASS_UNIT()
NAMED_UNIT(*)
SI_UNIT(.KILO.,.GRAM.)
);
#364=DERIVED_UNIT((#361,#362));
#365=MEASURE_REPRESENTATION_ITEM('density measure',
POSITIVE_RATIO_MEASURE(7850.),#364);
#366=PROPERTY_DEFINITION_REPRESENTATION(#371,#368);
#367=PROPERTY_DEFINITION_REPRESENTATION(#372,#369);
#368=REPRESENTATION('material name',(#370),#611);
#369=REPRESENTATION('density',(#365),#611);
#370=DESCRIPTIVE_REPRESENTATION_ITEM('Steel','Steel');
#371=PROPERTY_DEFINITION('material property','material name',#621);
#372=PROPERTY_DEFINITION('material property','density of part',#621);
#373=AXIS2_PLACEMENT_3D('placement',#516,#413,#414);
#374=AXIS2_PLACEMENT_3D('',#517,#415,#416);
#375=AXIS2_PLACEMENT_3D('',#519,#417,#418);
#376=AXIS2_PLACEMENT_3D('',#522,#420,#421);
#377=AXIS2_PLACEMENT_3D('',#523,#422,#423);
#378=AXIS2_PLACEMENT_3D('',#525,#424,#425);
#379=AXIS2_PLACEMENT_3D('',#528,#427,#428);
#380=AXIS2_PLACEMENT_3D('',#529,#429,#430);
#381=AXIS2_PLACEMENT_3D('',#531,#431,#432);
#382=AXIS2_PLACEMENT_3D('',#534,#434,#435);
#383=AXIS2_PLACEMENT_3D('',#535,#436,#437);
#384=AXIS2_PLACEMENT_3D('',#537,#438,#439);
#385=AXIS2_PLACEMENT_3D('',#540,#441,#442);
#386=AXIS2_PLACEMENT_3D('',#541,#443,#444);
#387=AXIS2_PLACEMENT_3D('',#543,#445,#446);
#388=AXIS2_PLACEMENT_3D('',#546,#448,#449);
#389=AXIS2_PLACEMENT_3D('',#547,#450,#451);
#390=AXIS2_PLACEMENT_3D('',#549,#452,#453);
#391=AXIS2_PLACEMENT_3D('',#552,#455,#456);
#392=AXIS2_PLACEMENT_3D('',#553,#457,#458);
#393=AXIS2_PLACEMENT_3D('',#555,#459,#460);
#394=AXIS2_PLACEMENT_3D('',#558,#462,#463);
#395=AXIS2_PLACEMENT_3D('',#559,#464,#465);
#396=AXIS2_PLACEMENT_3D('',#561,#466,#467);
#397=AXIS2_PLACEMENT_3D('',#564,#469,#470);
#398=AXIS2_PLACEMENT_3D('',#565,#471,#472);
#399=AXIS2_PLACEMENT_3D('',#567,#473,#474);
#400=AXIS2_PLACEMENT_3D('',#570,#476,#477);
#401=AXIS2_PLACEMENT_3D('',#571,#478,#479);
#402=AXIS2_PLACEMENT_3D('',#573,#480,#481);
#403=AXIS2_PLACEMENT_3D('',#576,#483,#484);
#404=AXIS2_PLACEMENT_3D('',#577,#485,#486);
#405=AXIS2_PLACEMENT_3D('',#579,#487,#488);
#406=AXIS2_PLACEMENT_3D('',#582,#490,#491);
#407=AXIS2_PLACEMENT_3D('',#583,#492,#493);
#408=AXIS2_PLACEMENT_3D('',#592,#498,#499);
#409=AXIS2_PLACEMENT_3D('',#598,#503,#504);
#410=AXIS2_PLACEMENT_3D('',#604,#508,#509);
#411=AXIS2_PLACEMENT_3D('',#607,#512,#513);
#412=AXIS2_PLACEMENT_3D('',#608,#514,#515);
#413=DIRECTION('axis',(0.,0.,1.));
#414=DIRECTION('refdir',(1.,0.,0.));
#415=DIRECTION('center_axis',(0.,0.,1.));
#416=DIRECTION('ref_axis',(1.,0.,0.));
#417=DIRECTION('center_axis',(0.,0.,-1.));
#418=DIRECTION('ref_axis',(1.,0.,0.));
#419=DIRECTION('',(0.,0.,-1.));
#420=DIRECTION('center_axis',(0.,0.,1.));
#421=DIRECTION('ref_axis',(1.,0.,0.));
#422=DIRECTION('center_axis',(0.,0.,1.));
#423=DIRECTION('ref_axis',(1.,0.,0.));
#424=DIRECTION('center_axis',(0.,0.,-1.));
#425=DIRECTION('ref_axis',(1.,0.,0.));
#426=DIRECTION('',(0.,0.,-1.));
#427=DIRECTION('center_axis',(0.,0.,1.));
#428=DIRECTION('ref_axis',(1.,0.,0.));
#429=DIRECTION('center_axis',(0.,0.,1.));
#430=DIRECTION('ref_axis',(1.,0.,0.));
#431=DIRECTION('center_axis',(0.,0.,-1.));
#432=DIRECTION('ref_axis',(1.,0.,0.));
#433=DIRECTION('',(0.,0.,-1.));
#434=DIRECTION('center_axis',(0.,0.,1.));
#435=DIRECTION('ref_axis',(1.,0.,0.));
#436=DIRECTION('center_axis',(0.,0.,1.));
#437=DIRECTION('ref_axis',(1.,0.,0.));
#438=DIRECTION('center_axis',(0.,0.,-1.));
#439=DIRECTION('ref_axis',(1.,0.,0.));
#440=DIRECTION('',(0.,0.,-1.));
#441=DIRECTION('center_axis',(0.,0.,1.));
#442=DIRECTION('ref_axis',(1.,0.,0.));
#443=DIRECTION('center_axis',(0.,0.,1.));
#444=DIRECTION('ref_axis',(1.,0.,0.));
#445=DIRECTION('center_axis',(0.,0.,-1.));
#446=DIRECTION('ref_axis',(1.,0.,0.));
#447=DIRECTION('',(0.,0.,-1.));
#448=DIRECTION('center_axis',(0.,0.,1.));
#449=DIRECTION('ref_axis',(1.,0.,0.));
#450=DIRECTION('center_axis',(0.,0.,1.));
#451=DIRECTION('ref_axis',(1.,0.,0.));
#452=DIRECTION('center_axis',(0.,0.,-1.));
#453=DIRECTION('ref_axis',(1.,0.,0.));
#454=DIRECTION('',(0.,0.,-1.));
#455=DIRECTION('center_axis',(0.,0.,1.));
#456=DIRECTION('ref_axis',(1.,0.,0.));
#457=DIRECTION('center_axis',(0.,0.,1.));
#458=DIRECTION('ref_axis',(1.,0.,0.));
#459=DIRECTION('center_axis',(0.,0.,-1.));
#460=DIRECTION('ref_axis',(1.,0.,0.));
#461=DIRECTION('',(0.,0.,-1.));
#462=DIRECTION('center_axis',(0.,0.,1.));
#463=DIRECTION('ref_axis',(1.,0.,0.));
#464=DIRECTION('center_axis',(0.,0.,1.));
#465=DIRECTION('ref_axis',(1.,0.,0.));
#466=DIRECTION('center_axis',(0.,0.,-1.));
#467=DIRECTION('ref_axis',(1.,0.,0.));
#468=DIRECTION('',(0.,0.,-1.));
#469=DIRECTION('center_axis',(0.,0.,1.));
#470=DIRECTION('ref_axis',(1.,0.,0.));
#471=DIRECTION('center_axis',(0.,0.,1.));
#472=DIRECTION('ref_axis',(1.,0.,0.));
#473=DIRECTION('center_axis',(0.,0.,-1.));
#474=DIRECTION('ref_axis',(1.,0.,0.));
#475=DIRECTION('',(0.,0.,-1.));
#476=DIRECTION('center_axis',(0.,0.,1.));
#477=DIRECTION('ref_axis',(1.,0.,0.));
#478=DIRECTION('center_axis',(0.,0.,1.));
#479=DIRECTION('ref_axis',(1.,0.,0.));
#480=DIRECTION('center_axis',(0.,0.,-1.));
#481=DIRECTION('ref_axis',(1.,0.,0.));
#482=DIRECTION('',(0.,0.,-1.));
#483=DIRECTION('center_axis',(0.,0.,1.));
#484=DIRECTION('ref_axis',(1.,0.,0.));
#485=DIRECTION('center_axis',(0.,0.,1.));
#486=DIRECTION('ref_axis',(1.,0.,0.));
#487=DIRECTION('center_axis',(0.,0.,-1.));
#488=DIRECTION('ref_axis',(1.,0.,0.));
#489=DIRECTION('',(0.,0.,-1.));
#490=DIRECTION('center_axis',(0.,0.,1.));
#491=DIRECTION('ref_axis',(1.,0.,0.));
#492=DIRECTION('center_axis',(0.,1.,0.));
#493=DIRECTION('ref_axis',(-1.,0.,0.));
#494=DIRECTION('',(1.,0.,0.));
#495=DIRECTION('',(0.,0.,1.));
#496=DIRECTION('',(-1.,0.,0.));
#497=DIRECTION('',(0.,0.,1.));
#498=DIRECTION('center_axis',(1.,0.,0.));
#499=DIRECTION('ref_axis',(0.,1.,0.));
#500=DIRECTION('',(0.,-1.,0.));
#501=DIRECTION('',(0.,1.,0.));
#502=DIRECTION('',(0.,0.,1.));
#503=DIRECTION('center_axis',(0.,-1.,0.));
#504=DIRECTION('ref_axis',(1.,0.,0.));
#505=DIRECTION('',(-1.,0.,0.));
#506=DIRECTION('',(1.,0.,0.));
#507=DIRECTION('',(0.,0.,1.));
#508=DIRECTION('center_axis',(-1.,0.,0.));
#509=DIRECTION('ref_axis',(0.,-1.,0.));
#510=DIRECTION('',(0.,1.,0.));
#511=DIRECTION('',(0.,-1.,0.));
#512=DIRECTION('center_axis',(0.,0.,1.));
#513=DIRECTION('ref_axis',(1.,0.,0.));
#514=DIRECTION('center_axis',(0.,0.,1.));
#515=DIRECTION('ref_axis',(1.,0.,0.));
#516=CARTESIAN_POINT('',(0.,0.,0.));
#517=CARTESIAN_POINT('Origin',(-40.,20.,0.));
#518=CARTESIAN_POINT('',(-45.25,20.,10.));
#519=CARTESIAN_POINT('Origin',(-40.,20.,10.));
#520=CARTESIAN_POINT('',(-45.25,20.,0.));
#521=CARTESIAN_POINT('',(-45.25,20.,0.));
#522=CARTESIAN_POINT('Origin',(-40.,20.,0.));
#523=CARTESIAN_POINT('Origin',(20.,-20.,0.));
#524=CARTESIAN_POINT('',(15.,-20.,10.));
#525=CARTESIAN_POINT('Origin',(20.,-20.,10.));
#526=CARTESIAN_POINT('',(15.,-20.,0.));
#527=CARTESIAN_POINT('',(15.,-20.,0.));
#528=CARTESIAN_POINT('Origin',(20.,-20.,0.));
#529=CARTESIAN_POINT('Origin',(20.,20.,0.));
#530=CARTESIAN_POINT('',(16.,20.,10.));
#531=CARTESIAN_POINT('Origin',(20.,20.,10.));
#532=CARTESIAN_POINT('',(16.,20.,0.));
#533=CARTESIAN_POINT('',(16.,20.,0.));
#534=CARTESIAN_POINT('Origin',(20.,20.,0.));
#535=CARTESIAN_POINT('Origin',(-40.,-20.,0.));
#536=CARTESIAN_POINT('',(-45.25,-20.,10.));
#537=CARTESIAN_POINT('Origin',(-40.,-20.,10.));
#538=CARTESIAN_POINT('',(-45.25,-20.,0.));
#539=CARTESIAN_POINT('',(-45.25,-20.,0.));
#540=CARTESIAN_POINT('Origin',(-40.,-20.,0.));
#541=CARTESIAN_POINT('Origin',(-20.,-20.,0.));
#542=CARTESIAN_POINT('',(-25.,-20.,10.));
#543=CARTESIAN_POINT('Origin',(-20.,-20.,10.));
#544=CARTESIAN_POINT('',(-25.,-20.,0.));
#545=CARTESIAN_POINT('',(-25.,-20.,0.));
#546=CARTESIAN_POINT('Origin',(-20.,-20.,0.));
#547=CARTESIAN_POINT('Origin',(-20.,20.,0.));
#548=CARTESIAN_POINT('',(-24.,20.,10.));
#549=CARTESIAN_POINT('Origin',(-20.,20.,10.));
#550=CARTESIAN_POINT('',(-24.,20.,0.));
#551=CARTESIAN_POINT('',(-24.,20.,0.));
#552=CARTESIAN_POINT('Origin',(-20.,20.,0.));
#553=CARTESIAN_POINT('Origin',(40.,-20.,0.));
#554=CARTESIAN_POINT('',(34.75,-20.,10.));
#555=CARTESIAN_POINT('Origin',(40.,-20.,10.));
#556=CARTESIAN_POINT('',(34.75,-20.,0.));
#557=CARTESIAN_POINT('',(34.75,-20.,0.));
#558=CARTESIAN_POINT('Origin',(40.,-20.,0.));
#559=CARTESIAN_POINT('Origin',(-40.,0.,0.));
#560=CARTESIAN_POINT('',(-43.,0.,10.));
#561=CARTESIAN_POINT('Origin',(-40.,0.,10.));
#562=CARTESIAN_POINT('',(-43.,-3.67394039744206E-16,0.));
#563=CARTESIAN_POINT('',(-43.,-3.67394039744206E-16,0.));
#564=CARTESIAN_POINT('Origin',(-40.,0.,0.));
#565=CARTESIAN_POINT('Origin',(40.,0.,0.));
#566=CARTESIAN_POINT('',(37.,0.,10.));
#567=CARTESIAN_POINT('Origin',(40.,0.,10.));
#568=CARTESIAN_POINT('',(37.,-3.67394039744206E-16,0.));
#569=CARTESIAN_POINT('',(37.,-3.67394039744206E-16,0.));
#570=CARTESIAN_POINT('Origin',(40.,0.,0.));
#571=CARTESIAN_POINT('Origin',(0.,0.,0.));
#572=CARTESIAN_POINT('',(-15.,0.,10.));
#573=CARTESIAN_POINT('Origin',(0.,0.,10.));
#574=CARTESIAN_POINT('',(-15.,-1.83697019872103E-15,0.));
#575=CARTESIAN_POINT('',(-15.,-1.83697019872103E-15,0.));
#576=CARTESIAN_POINT('Origin',(0.,0.,0.));
#577=CARTESIAN_POINT('Origin',(40.,20.,0.));
#578=CARTESIAN_POINT('',(34.75,20.,10.));
#579=CARTESIAN_POINT('Origin',(40.,20.,10.));
#580=CARTESIAN_POINT('',(34.75,20.,0.));
#581=CARTESIAN_POINT('',(34.75,20.,0.));
#582=CARTESIAN_POINT('Origin',(40.,20.,0.));
#583=CARTESIAN_POINT('Origin',(50.,30.,0.));
#584=CARTESIAN_POINT('',(-50.,30.,0.));
#585=CARTESIAN_POINT('',(50.,30.,0.));
#586=CARTESIAN_POINT('',(0.,30.,0.));
#587=CARTESIAN_POINT('',(-50.,30.,10.));
#588=CARTESIAN_POINT('',(-50.,30.,0.));
#589=CARTESIAN_POINT('',(50.,30.,10.));
#590=CARTESIAN_POINT('',(0.,30.,10.));
#591=CARTESIAN_POINT('',(50.,30.,0.));
#592=CARTESIAN_POINT('Origin',(50.,-30.,0.));
#593=CARTESIAN_POINT('',(50.,-30.,0.));
#594=CARTESIAN_POINT('',(50.,30.,0.));
#595=CARTESIAN_POINT('',(50.,-30.,10.));
#596=CARTESIAN_POINT('',(50.,30.,10.));
#597=CARTESIAN_POINT('',(50.,-30.,0.));
#598=CARTESIAN_POINT('Origin',(-50.,-30.,0.));
#599=CARTESIAN_POINT('',(-50.,-30.,0.));
#600=CARTESIAN_POINT('',(50.,-30.,0.));
#601=CARTESIAN_POINT('',(-50.,-30.,10.));
#602=CARTESIAN_POINT('',(50.,-30.,10.));
#603=CARTESIAN_POINT('',(-50.,-30.,0.));
#604=CARTESIAN_POINT('Origin',(-50.,30.,0.));
#605=CARTESIAN_POINT('',(-50.,-30.,0.));
#606=CARTESIAN_POINT('',(-50.,-30.,10.));
#607=CARTESIAN_POINT('Origin',(0.,0.,10.));
#608=CARTESIAN_POINT('Origin',(0.,0.,0.));
#609=UNCERTAINTY_MEASURE_WITH_UNIT(LENGTH_MEASURE(0.01),#613,
'DISTANCE_ACCURACY_VALUE',
'Maximum model space distance between geometric entities at asserted c
onnectivities');
#610=UNCERTAINTY_MEASURE_WITH_UNIT(LENGTH_MEASURE(0.01),#613,
'DISTANCE_ACCURACY_VALUE',
'Maximum model space distance between geometric entities at asserted c
onnectivities');
#611=(
GEOMETRIC_REPRESENTATION_CONTEXT(3)
GLOBAL_UNCERTAINTY_ASSIGNED_CONTEXT((#609))
GLOBAL_UNIT_ASSIGNED_CONTEXT((#613,#615,#616))
REPRESENTATION_CONTEXT('','3D')
);
#612=(
GEOMETRIC_REPRESENTATION_CONTEXT(3)
GLOBAL_UNCERTAINTY_ASSIGNED_CONTEXT((#610))
GLOBAL_UNIT_ASSIGNED_CONTEXT((#613,#615,#616))
REPRESENTATION_CONTEXT('','3D')
);
#613=(
LENGTH_UNIT()
NAMED_UNIT(*)
SI_UNIT(.MILLI.,.METRE.)
);
#614=(
LENGTH_UNIT()
NAMED_UNIT(*)
SI_UNIT($,.METRE.)
);
#615=(
NAMED_UNIT(*)
PLANE_ANGLE_UNIT()
SI_UNIT($,.RADIAN.)
);
#616=(
NAMED_UNIT(*)
SI_UNIT($,.STERADIAN.)
SOLID_ANGLE_UNIT()
);
#617=SHAPE_DEFINITION_REPRESENTATION(#618,#619);
#618=PRODUCT_DEFINITION_SHAPE('',$,#621);
#619=SHAPE_REPRESENTATION('',(#373),#611);
#620=PRODUCT_DEFINITION_CONTEXT('part definition',#625,'design');
#621=PRODUCT_DEFINITION('EBL-PL0','EBL-PL0',#622,#620);
#622=PRODUCT_DEFINITION_FORMATION('',$,#627);
#623=PRODUCT_RELATED_PRODUCT_CATEGORY('EBL-PL0','EBL-PL0',(#627));
#624=APPLICATION_PROTOCOL_DEFINITION('international standard',
'automotive_design',2009,#625);
#625=APPLICATION_CONTEXT(
'Core Data for Automotive Mechanical Design Process');
#626=PRODUCT_CONTEXT('part definition',#625,'mechanical');
#627=PRODUCT('EBL-PL0','EBL-PL0',$,(#626));
#628=PRESENTATION_STYLE_ASSIGNMENT((#629));
#629=SURFACE_STYLE_USAGE(.BOTH.,#630);
#630=SURFACE_SIDE_STYLE('',(#631));
#631=SURFACE_STYLE_FILL_AREA(#632);
#632=FILL_AREA_STYLE('Steel - Satin',(#633));
#633=FILL_AREA_STYLE_COLOUR('Steel - Satin',#634);
#634=COLOUR_RGB('Steel - Satin',0.627450980392157,0.627450980392157,0.627450980392157);
ENDSEC;
END-ISO-10303-21;
