ISO-10303-21;
HEADER;
/* Generated by software containing ST-Developer
 * from STEP Tools, Inc. (www.steptools.com) 
 */

FILE_DESCRIPTION(
/* description */ (''),
/* implementation_level */ '2;1');

FILE_NAME(
/* name */ '/Users/matt/Files/EBL/2020/4-056 v7.step',
/* time_stamp */ '2020-01-29T11:12:34+00:00',
/* author */ (''),
/* organization */ (''),
/* preprocessor_version */ 'ST-DEVELOPER v18',
/* originating_system */ 'Autodesk Translation Framework v8.6.0.1094',
/* authorisation */ '');

FILE_SCHEMA (('AUTOMOTIVE_DESIGN { 1 0 10303 214 3 1 1 }'));
ENDSEC;

DATA;
#10=MECHANICAL_DESIGN_GEOMETRIC_PRESENTATION_REPRESENTATION('',(#18,#19,
#20),#628);
#11=SHAPE_REPRESENTATION_RELATIONSHIP('SRR','None',#635,#12);
#12=ADVANCED_BREP_SHAPE_REPRESENTATION('',(#21,#22,#23),#627);
#13=FACE_BOUND('',#82,.T.);
#14=FACE_BOUND('',#89,.T.);
#15=CONICAL_SURFACE('',#356,33.7090390722075,1.22173047639603);
#16=CONICAL_SURFACE('',#385,16.2625,0.529317069719056);
#17=CONICAL_SURFACE('',#395,26.5,0.78539816339744);
#18=STYLED_ITEM('',(#644),#21);
#19=STYLED_ITEM('',(#644),#22);
#20=STYLED_ITEM('',(#644),#23);
#21=MANIFOLD_SOLID_BREP('Body3',#325);
#22=MANIFOLD_SOLID_BREP('Body4',#326);
#23=MANIFOLD_SOLID_BREP('Body5',#327);
#24=PLANE('',#350);
#25=PLANE('',#355);
#26=PLANE('',#375);
#27=PLANE('',#376);
#28=PLANE('',#382);
#29=PLANE('',#388);
#30=PLANE('',#389);
#31=PLANE('',#398);
#32=LINE('',#540,#39);
#33=LINE('',#556,#40);
#34=LINE('',#575,#41);
#35=LINE('',#591,#42);
#36=LINE('',#605,#43);
#37=LINE('',#617,#44);
#38=LINE('',#623,#45);
#39=VECTOR('',#419,15.45);
#40=VECTOR('',#438,33.7090390722075);
#41=VECTOR('',#461,38.85);
#42=VECTOR('',#482,20.);
#43=VECTOR('',#499,16.2625);
#44=VECTOR('',#514,27.);
#45=VECTOR('',#521,26.5);
#46=CYLINDRICAL_SURFACE('',#347,15.45);
#47=CYLINDRICAL_SURFACE('',#367,38.85);
#48=CYLINDRICAL_SURFACE('',#377,20.);
#49=CYLINDRICAL_SURFACE('',#392,27.);
#50=FACE_OUTER_BOUND('',#69,.T.);
#51=FACE_OUTER_BOUND('',#70,.T.);
#52=FACE_OUTER_BOUND('',#71,.T.);
#53=FACE_OUTER_BOUND('',#72,.T.);
#54=FACE_OUTER_BOUND('',#73,.T.);
#55=FACE_OUTER_BOUND('',#74,.T.);
#56=FACE_OUTER_BOUND('',#75,.T.);
#57=FACE_OUTER_BOUND('',#76,.T.);
#58=FACE_OUTER_BOUND('',#77,.T.);
#59=FACE_OUTER_BOUND('',#78,.T.);
#60=FACE_OUTER_BOUND('',#79,.T.);
#61=FACE_OUTER_BOUND('',#80,.T.);
#62=FACE_OUTER_BOUND('',#81,.T.);
#63=FACE_OUTER_BOUND('',#83,.T.);
#64=FACE_OUTER_BOUND('',#84,.T.);
#65=FACE_OUTER_BOUND('',#85,.T.);
#66=FACE_OUTER_BOUND('',#86,.T.);
#67=FACE_OUTER_BOUND('',#87,.T.);
#68=FACE_OUTER_BOUND('',#88,.T.);
#69=EDGE_LOOP('',(#210,#211,#212,#213,#214,#215));
#70=EDGE_LOOP('',(#216,#217,#218,#219,#220,#221));
#71=EDGE_LOOP('',(#222,#223));
#72=EDGE_LOOP('',(#224,#225,#226,#227,#228,#229));
#73=EDGE_LOOP('',(#230,#231));
#74=EDGE_LOOP('',(#232,#233,#234,#235,#236,#237,#238));
#75=EDGE_LOOP('',(#239,#240,#241,#242,#243,#244,#245,#246));
#76=EDGE_LOOP('',(#247,#248,#249,#250,#251,#252,#253,#254));
#77=EDGE_LOOP('',(#255,#256,#257,#258,#259,#260,#261));
#78=EDGE_LOOP('',(#262,#263));
#79=EDGE_LOOP('',(#264,#265));
#80=EDGE_LOOP('',(#266,#267,#268,#269,#270,#271));
#81=EDGE_LOOP('',(#272,#273));
#82=EDGE_LOOP('',(#274,#275));
#83=EDGE_LOOP('',(#276,#277,#278,#279,#280,#281));
#84=EDGE_LOOP('',(#282,#283));
#85=EDGE_LOOP('',(#284,#285));
#86=EDGE_LOOP('',(#286,#287,#288,#289,#290,#291));
#87=EDGE_LOOP('',(#292,#293,#294,#295,#296,#297));
#88=EDGE_LOOP('',(#298,#299));
#89=EDGE_LOOP('',(#300,#301));
#90=CIRCLE('',#342,15.45);
#91=CIRCLE('',#343,2.);
#92=CIRCLE('',#344,13.45);
#93=CIRCLE('',#345,13.45);
#94=CIRCLE('',#346,15.45);
#95=CIRCLE('',#348,15.45);
#96=CIRCLE('',#349,15.45);
#97=CIRCLE('',#352,13.45);
#98=CIRCLE('',#353,2.);
#99=CIRCLE('',#354,13.45);
#100=CIRCLE('',#357,36.2180805733027);
#101=CIRCLE('',#358,36.2180805733027);
#102=CIRCLE('',#359,31.1999975711124);
#103=CIRCLE('',#360,31.1999975711124);
#104=CIRCLE('',#361,36.2180805733027);
#105=CIRCLE('',#363,38.85);
#106=CIRCLE('',#364,38.85);
#107=CIRCLE('',#365,38.85);
#108=CIRCLE('',#366,4.);
#109=CIRCLE('',#368,38.85);
#110=CIRCLE('',#369,38.85);
#111=CIRCLE('',#370,38.85);
#112=CIRCLE('',#372,36.85);
#113=CIRCLE('',#373,36.85);
#114=CIRCLE('',#374,1.99999999999999);
#115=CIRCLE('',#378,20.);
#116=CIRCLE('',#379,20.);
#117=CIRCLE('',#380,20.);
#118=CIRCLE('',#381,20.);
#119=CIRCLE('',#383,17.725);
#120=CIRCLE('',#384,17.725);
#121=CIRCLE('',#386,14.8);
#122=CIRCLE('',#387,14.8);
#123=CIRCLE('',#390,27.);
#124=CIRCLE('',#391,27.);
#125=CIRCLE('',#393,27.);
#126=CIRCLE('',#394,27.);
#127=CIRCLE('',#396,26.);
#128=CIRCLE('',#397,26.);
#129=VERTEX_POINT('',#526);
#130=VERTEX_POINT('',#527);
#131=VERTEX_POINT('',#529);
#132=VERTEX_POINT('',#531);
#133=VERTEX_POINT('',#536);
#134=VERTEX_POINT('',#537);
#135=VERTEX_POINT('',#543);
#136=VERTEX_POINT('',#544);
#137=VERTEX_POINT('',#550);
#138=VERTEX_POINT('',#551);
#139=VERTEX_POINT('',#553);
#140=VERTEX_POINT('',#555);
#141=VERTEX_POINT('',#557);
#142=VERTEX_POINT('',#562);
#143=VERTEX_POINT('',#563);
#144=VERTEX_POINT('',#565);
#145=VERTEX_POINT('',#570);
#146=VERTEX_POINT('',#571);
#147=VERTEX_POINT('',#573);
#148=VERTEX_POINT('',#578);
#149=VERTEX_POINT('',#579);
#150=VERTEX_POINT('',#586);
#151=VERTEX_POINT('',#587);
#152=VERTEX_POINT('',#590);
#153=VERTEX_POINT('',#592);
#154=VERTEX_POINT('',#596);
#155=VERTEX_POINT('',#597);
#156=VERTEX_POINT('',#601);
#157=VERTEX_POINT('',#602);
#158=VERTEX_POINT('',#608);
#159=VERTEX_POINT('',#609);
#160=VERTEX_POINT('',#613);
#161=VERTEX_POINT('',#614);
#162=VERTEX_POINT('',#619);
#163=VERTEX_POINT('',#620);
#164=EDGE_CURVE('',#129,#130,#90,.T.);
#165=EDGE_CURVE('',#130,#131,#91,.T.);
#166=EDGE_CURVE('',#131,#132,#92,.T.);
#167=EDGE_CURVE('',#132,#131,#93,.T.);
#168=EDGE_CURVE('',#130,#129,#94,.T.);
#169=EDGE_CURVE('',#133,#134,#95,.T.);
#170=EDGE_CURVE('',#134,#133,#96,.T.);
#171=EDGE_CURVE('',#134,#130,#32,.T.);
#172=EDGE_CURVE('',#135,#136,#97,.T.);
#173=EDGE_CURVE('',#136,#134,#98,.T.);
#174=EDGE_CURVE('',#136,#135,#99,.T.);
#175=EDGE_CURVE('',#137,#138,#100,.T.);
#176=EDGE_CURVE('',#139,#137,#101,.T.);
#177=EDGE_CURVE('',#139,#140,#33,.T.);
#178=EDGE_CURVE('',#140,#141,#102,.T.);
#179=EDGE_CURVE('',#141,#140,#103,.T.);
#180=EDGE_CURVE('',#138,#139,#104,.T.);
#181=EDGE_CURVE('',#142,#143,#105,.T.);
#182=EDGE_CURVE('',#144,#142,#106,.T.);
#183=EDGE_CURVE('',#143,#144,#107,.T.);
#184=EDGE_CURVE('',#143,#138,#108,.T.);
#185=EDGE_CURVE('',#145,#146,#109,.T.);
#186=EDGE_CURVE('',#147,#145,#110,.T.);
#187=EDGE_CURVE('',#147,#144,#34,.T.);
#188=EDGE_CURVE('',#146,#147,#111,.T.);
#189=EDGE_CURVE('',#148,#149,#112,.T.);
#190=EDGE_CURVE('',#149,#148,#113,.T.);
#191=EDGE_CURVE('',#149,#146,#114,.T.);
#192=EDGE_CURVE('',#150,#151,#115,.T.);
#193=EDGE_CURVE('',#151,#150,#116,.T.);
#194=EDGE_CURVE('',#151,#152,#35,.T.);
#195=EDGE_CURVE('',#152,#153,#117,.T.);
#196=EDGE_CURVE('',#153,#152,#118,.T.);
#197=EDGE_CURVE('',#154,#155,#119,.T.);
#198=EDGE_CURVE('',#155,#154,#120,.T.);
#199=EDGE_CURVE('',#156,#157,#121,.T.);
#200=EDGE_CURVE('',#157,#156,#122,.T.);
#201=EDGE_CURVE('',#157,#155,#36,.T.);
#202=EDGE_CURVE('',#158,#159,#123,.T.);
#203=EDGE_CURVE('',#159,#158,#124,.T.);
#204=EDGE_CURVE('',#160,#161,#125,.T.);
#205=EDGE_CURVE('',#161,#160,#126,.T.);
#206=EDGE_CURVE('',#161,#159,#37,.T.);
#207=EDGE_CURVE('',#162,#163,#127,.T.);
#208=EDGE_CURVE('',#163,#162,#128,.T.);
#209=EDGE_CURVE('',#163,#161,#38,.T.);
#210=ORIENTED_EDGE('',*,*,#164,.T.);
#211=ORIENTED_EDGE('',*,*,#165,.T.);
#212=ORIENTED_EDGE('',*,*,#166,.T.);
#213=ORIENTED_EDGE('',*,*,#167,.T.);
#214=ORIENTED_EDGE('',*,*,#165,.F.);
#215=ORIENTED_EDGE('',*,*,#168,.T.);
#216=ORIENTED_EDGE('',*,*,#169,.F.);
#217=ORIENTED_EDGE('',*,*,#170,.F.);
#218=ORIENTED_EDGE('',*,*,#171,.T.);
#219=ORIENTED_EDGE('',*,*,#164,.F.);
#220=ORIENTED_EDGE('',*,*,#168,.F.);
#221=ORIENTED_EDGE('',*,*,#171,.F.);
#222=ORIENTED_EDGE('',*,*,#167,.F.);
#223=ORIENTED_EDGE('',*,*,#166,.F.);
#224=ORIENTED_EDGE('',*,*,#172,.T.);
#225=ORIENTED_EDGE('',*,*,#173,.T.);
#226=ORIENTED_EDGE('',*,*,#170,.T.);
#227=ORIENTED_EDGE('',*,*,#169,.T.);
#228=ORIENTED_EDGE('',*,*,#173,.F.);
#229=ORIENTED_EDGE('',*,*,#174,.T.);
#230=ORIENTED_EDGE('',*,*,#172,.F.);
#231=ORIENTED_EDGE('',*,*,#174,.F.);
#232=ORIENTED_EDGE('',*,*,#175,.F.);
#233=ORIENTED_EDGE('',*,*,#176,.F.);
#234=ORIENTED_EDGE('',*,*,#177,.T.);
#235=ORIENTED_EDGE('',*,*,#178,.T.);
#236=ORIENTED_EDGE('',*,*,#179,.T.);
#237=ORIENTED_EDGE('',*,*,#177,.F.);
#238=ORIENTED_EDGE('',*,*,#180,.F.);
#239=ORIENTED_EDGE('',*,*,#181,.F.);
#240=ORIENTED_EDGE('',*,*,#182,.F.);
#241=ORIENTED_EDGE('',*,*,#183,.F.);
#242=ORIENTED_EDGE('',*,*,#184,.T.);
#243=ORIENTED_EDGE('',*,*,#180,.T.);
#244=ORIENTED_EDGE('',*,*,#176,.T.);
#245=ORIENTED_EDGE('',*,*,#175,.T.);
#246=ORIENTED_EDGE('',*,*,#184,.F.);
#247=ORIENTED_EDGE('',*,*,#185,.F.);
#248=ORIENTED_EDGE('',*,*,#186,.F.);
#249=ORIENTED_EDGE('',*,*,#187,.T.);
#250=ORIENTED_EDGE('',*,*,#182,.T.);
#251=ORIENTED_EDGE('',*,*,#181,.T.);
#252=ORIENTED_EDGE('',*,*,#183,.T.);
#253=ORIENTED_EDGE('',*,*,#187,.F.);
#254=ORIENTED_EDGE('',*,*,#188,.F.);
#255=ORIENTED_EDGE('',*,*,#189,.F.);
#256=ORIENTED_EDGE('',*,*,#190,.F.);
#257=ORIENTED_EDGE('',*,*,#191,.T.);
#258=ORIENTED_EDGE('',*,*,#188,.T.);
#259=ORIENTED_EDGE('',*,*,#186,.T.);
#260=ORIENTED_EDGE('',*,*,#185,.T.);
#261=ORIENTED_EDGE('',*,*,#191,.F.);
#262=ORIENTED_EDGE('',*,*,#189,.T.);
#263=ORIENTED_EDGE('',*,*,#190,.T.);
#264=ORIENTED_EDGE('',*,*,#179,.F.);
#265=ORIENTED_EDGE('',*,*,#178,.F.);
#266=ORIENTED_EDGE('',*,*,#192,.F.);
#267=ORIENTED_EDGE('',*,*,#193,.F.);
#268=ORIENTED_EDGE('',*,*,#194,.T.);
#269=ORIENTED_EDGE('',*,*,#195,.T.);
#270=ORIENTED_EDGE('',*,*,#196,.T.);
#271=ORIENTED_EDGE('',*,*,#194,.F.);
#272=ORIENTED_EDGE('',*,*,#192,.T.);
#273=ORIENTED_EDGE('',*,*,#193,.T.);
#274=ORIENTED_EDGE('',*,*,#197,.F.);
#275=ORIENTED_EDGE('',*,*,#198,.F.);
#276=ORIENTED_EDGE('',*,*,#199,.F.);
#277=ORIENTED_EDGE('',*,*,#200,.F.);
#278=ORIENTED_EDGE('',*,*,#201,.T.);
#279=ORIENTED_EDGE('',*,*,#198,.T.);
#280=ORIENTED_EDGE('',*,*,#197,.T.);
#281=ORIENTED_EDGE('',*,*,#201,.F.);
#282=ORIENTED_EDGE('',*,*,#199,.T.);
#283=ORIENTED_EDGE('',*,*,#200,.T.);
#284=ORIENTED_EDGE('',*,*,#202,.F.);
#285=ORIENTED_EDGE('',*,*,#203,.F.);
#286=ORIENTED_EDGE('',*,*,#204,.F.);
#287=ORIENTED_EDGE('',*,*,#205,.F.);
#288=ORIENTED_EDGE('',*,*,#206,.T.);
#289=ORIENTED_EDGE('',*,*,#203,.T.);
#290=ORIENTED_EDGE('',*,*,#202,.T.);
#291=ORIENTED_EDGE('',*,*,#206,.F.);
#292=ORIENTED_EDGE('',*,*,#207,.F.);
#293=ORIENTED_EDGE('',*,*,#208,.F.);
#294=ORIENTED_EDGE('',*,*,#209,.T.);
#295=ORIENTED_EDGE('',*,*,#205,.T.);
#296=ORIENTED_EDGE('',*,*,#204,.T.);
#297=ORIENTED_EDGE('',*,*,#209,.F.);
#298=ORIENTED_EDGE('',*,*,#207,.T.);
#299=ORIENTED_EDGE('',*,*,#208,.T.);
#300=ORIENTED_EDGE('',*,*,#196,.F.);
#301=ORIENTED_EDGE('',*,*,#195,.F.);
#302=TOROIDAL_SURFACE('',#341,13.45,2.);
#303=TOROIDAL_SURFACE('',#351,13.45,2.);
#304=TOROIDAL_SURFACE('',#362,34.85,4.);
#305=TOROIDAL_SURFACE('',#371,36.85,1.99999999999999);
#306=ADVANCED_FACE('',(#50),#302,.T.);
#307=ADVANCED_FACE('',(#51),#46,.T.);
#308=ADVANCED_FACE('',(#52),#24,.F.);
#309=ADVANCED_FACE('',(#53),#303,.T.);
#310=ADVANCED_FACE('',(#54),#25,.T.);
#311=ADVANCED_FACE('',(#55),#15,.T.);
#312=ADVANCED_FACE('',(#56),#304,.T.);
#313=ADVANCED_FACE('',(#57),#47,.T.);
#314=ADVANCED_FACE('',(#58),#305,.T.);
#315=ADVANCED_FACE('',(#59),#26,.T.);
#316=ADVANCED_FACE('',(#60),#27,.T.);
#317=ADVANCED_FACE('',(#61),#48,.T.);
#318=ADVANCED_FACE('',(#62,#13),#28,.T.);
#319=ADVANCED_FACE('',(#63),#16,.T.);
#320=ADVANCED_FACE('',(#64),#29,.T.);
#321=ADVANCED_FACE('',(#65),#30,.T.);
#322=ADVANCED_FACE('',(#66),#49,.T.);
#323=ADVANCED_FACE('',(#67),#17,.T.);
#324=ADVANCED_FACE('',(#68,#14),#31,.T.);
#325=CLOSED_SHELL('',(#306,#307,#308,#309,#310));
#326=CLOSED_SHELL('',(#311,#312,#313,#314,#315,#316));
#327=CLOSED_SHELL('',(#317,#318,#319,#320,#321,#322,#323,#324));
#328=DERIVED_UNIT_ELEMENT(#330,1.);
#329=DERIVED_UNIT_ELEMENT(#630,3.);
#330=(
MASS_UNIT()
NAMED_UNIT(*)
SI_UNIT(.KILO.,.GRAM.)
);
#331=DERIVED_UNIT((#328,#329));
#332=MEASURE_REPRESENTATION_ITEM('density measure',
POSITIVE_RATIO_MEASURE(7850.),#331);
#333=PROPERTY_DEFINITION_REPRESENTATION(#338,#335);
#334=PROPERTY_DEFINITION_REPRESENTATION(#339,#336);
#335=REPRESENTATION('material name',(#337),#627);
#336=REPRESENTATION('density',(#332),#627);
#337=DESCRIPTIVE_REPRESENTATION_ITEM('Steel','Steel');
#338=PROPERTY_DEFINITION('material property','material name',#637);
#339=PROPERTY_DEFINITION('material property','density of part',#637);
#340=AXIS2_PLACEMENT_3D('placement',#524,#399,#400);
#341=AXIS2_PLACEMENT_3D('',#525,#401,#402);
#342=AXIS2_PLACEMENT_3D('',#528,#403,#404);
#343=AXIS2_PLACEMENT_3D('',#530,#405,#406);
#344=AXIS2_PLACEMENT_3D('',#532,#407,#408);
#345=AXIS2_PLACEMENT_3D('',#533,#409,#410);
#346=AXIS2_PLACEMENT_3D('',#534,#411,#412);
#347=AXIS2_PLACEMENT_3D('',#535,#413,#414);
#348=AXIS2_PLACEMENT_3D('',#538,#415,#416);
#349=AXIS2_PLACEMENT_3D('',#539,#417,#418);
#350=AXIS2_PLACEMENT_3D('',#541,#420,#421);
#351=AXIS2_PLACEMENT_3D('',#542,#422,#423);
#352=AXIS2_PLACEMENT_3D('',#545,#424,#425);
#353=AXIS2_PLACEMENT_3D('',#546,#426,#427);
#354=AXIS2_PLACEMENT_3D('',#547,#428,#429);
#355=AXIS2_PLACEMENT_3D('',#548,#430,#431);
#356=AXIS2_PLACEMENT_3D('',#549,#432,#433);
#357=AXIS2_PLACEMENT_3D('',#552,#434,#435);
#358=AXIS2_PLACEMENT_3D('',#554,#436,#437);
#359=AXIS2_PLACEMENT_3D('',#558,#439,#440);
#360=AXIS2_PLACEMENT_3D('',#559,#441,#442);
#361=AXIS2_PLACEMENT_3D('',#560,#443,#444);
#362=AXIS2_PLACEMENT_3D('',#561,#445,#446);
#363=AXIS2_PLACEMENT_3D('',#564,#447,#448);
#364=AXIS2_PLACEMENT_3D('',#566,#449,#450);
#365=AXIS2_PLACEMENT_3D('',#567,#451,#452);
#366=AXIS2_PLACEMENT_3D('',#568,#453,#454);
#367=AXIS2_PLACEMENT_3D('',#569,#455,#456);
#368=AXIS2_PLACEMENT_3D('',#572,#457,#458);
#369=AXIS2_PLACEMENT_3D('',#574,#459,#460);
#370=AXIS2_PLACEMENT_3D('',#576,#462,#463);
#371=AXIS2_PLACEMENT_3D('',#577,#464,#465);
#372=AXIS2_PLACEMENT_3D('',#580,#466,#467);
#373=AXIS2_PLACEMENT_3D('',#581,#468,#469);
#374=AXIS2_PLACEMENT_3D('',#582,#470,#471);
#375=AXIS2_PLACEMENT_3D('',#583,#472,#473);
#376=AXIS2_PLACEMENT_3D('',#584,#474,#475);
#377=AXIS2_PLACEMENT_3D('',#585,#476,#477);
#378=AXIS2_PLACEMENT_3D('',#588,#478,#479);
#379=AXIS2_PLACEMENT_3D('',#589,#480,#481);
#380=AXIS2_PLACEMENT_3D('',#593,#483,#484);
#381=AXIS2_PLACEMENT_3D('',#594,#485,#486);
#382=AXIS2_PLACEMENT_3D('',#595,#487,#488);
#383=AXIS2_PLACEMENT_3D('',#598,#489,#490);
#384=AXIS2_PLACEMENT_3D('',#599,#491,#492);
#385=AXIS2_PLACEMENT_3D('',#600,#493,#494);
#386=AXIS2_PLACEMENT_3D('',#603,#495,#496);
#387=AXIS2_PLACEMENT_3D('',#604,#497,#498);
#388=AXIS2_PLACEMENT_3D('',#606,#500,#501);
#389=AXIS2_PLACEMENT_3D('',#607,#502,#503);
#390=AXIS2_PLACEMENT_3D('',#610,#504,#505);
#391=AXIS2_PLACEMENT_3D('',#611,#506,#507);
#392=AXIS2_PLACEMENT_3D('',#612,#508,#509);
#393=AXIS2_PLACEMENT_3D('',#615,#510,#511);
#394=AXIS2_PLACEMENT_3D('',#616,#512,#513);
#395=AXIS2_PLACEMENT_3D('',#618,#515,#516);
#396=AXIS2_PLACEMENT_3D('',#621,#517,#518);
#397=AXIS2_PLACEMENT_3D('',#622,#519,#520);
#398=AXIS2_PLACEMENT_3D('',#624,#522,#523);
#399=DIRECTION('axis',(0.,0.,1.));
#400=DIRECTION('refdir',(1.,0.,0.));
#401=DIRECTION('center_axis',(0.,0.,1.));
#402=DIRECTION('ref_axis',(1.,0.,0.));
#403=DIRECTION('center_axis',(0.,0.,-1.));
#404=DIRECTION('ref_axis',(6.12323399573677E-17,-1.,0.));
#405=DIRECTION('center_axis',(0.,-1.,0.));
#406=DIRECTION('ref_axis',(-1.,0.,0.));
#407=DIRECTION('center_axis',(0.,0.,1.));
#408=DIRECTION('ref_axis',(6.12323399573677E-17,-1.,0.));
#409=DIRECTION('center_axis',(0.,0.,1.));
#410=DIRECTION('ref_axis',(6.12323399573677E-17,-1.,0.));
#411=DIRECTION('center_axis',(0.,0.,-1.));
#412=DIRECTION('ref_axis',(6.12323399573677E-17,-1.,0.));
#413=DIRECTION('center_axis',(0.,0.,1.));
#414=DIRECTION('ref_axis',(1.,0.,0.));
#415=DIRECTION('center_axis',(0.,0.,1.));
#416=DIRECTION('ref_axis',(6.12323399573677E-17,-1.,0.));
#417=DIRECTION('center_axis',(0.,0.,1.));
#418=DIRECTION('ref_axis',(6.12323399573677E-17,-1.,0.));
#419=DIRECTION('',(0.,0.,-1.));
#420=DIRECTION('center_axis',(0.,0.,1.));
#421=DIRECTION('ref_axis',(1.,0.,0.));
#422=DIRECTION('center_axis',(0.,0.,1.));
#423=DIRECTION('ref_axis',(1.,0.,0.));
#424=DIRECTION('center_axis',(0.,0.,-1.));
#425=DIRECTION('ref_axis',(6.12323399573677E-17,-1.,0.));
#426=DIRECTION('center_axis',(0.,-1.,0.));
#427=DIRECTION('ref_axis',(-1.,0.,0.));
#428=DIRECTION('center_axis',(0.,0.,-1.));
#429=DIRECTION('ref_axis',(6.12323399573677E-17,-1.,0.));
#430=DIRECTION('center_axis',(0.,0.,1.));
#431=DIRECTION('ref_axis',(1.,0.,0.));
#432=DIRECTION('center_axis',(2.22044604925031E-16,1.,0.));
#433=DIRECTION('ref_axis',(-1.,2.22044604925031E-16,0.));
#434=DIRECTION('center_axis',(2.22044604925031E-16,1.,0.));
#435=DIRECTION('ref_axis',(0.,0.,-1.));
#436=DIRECTION('center_axis',(2.22044604925031E-16,1.,0.));
#437=DIRECTION('ref_axis',(0.,0.,-1.));
#438=DIRECTION('',(-0.939692620785908,-0.342020143325669,1.15079156022785E-16));
#439=DIRECTION('center_axis',(2.22044604925031E-16,1.,0.));
#440=DIRECTION('ref_axis',(0.,0.,-1.));
#441=DIRECTION('center_axis',(2.22044604925031E-16,1.,0.));
#442=DIRECTION('ref_axis',(0.,0.,-1.));
#443=DIRECTION('center_axis',(2.22044604925031E-16,1.,0.));
#444=DIRECTION('ref_axis',(0.,0.,-1.));
#445=DIRECTION('center_axis',(2.22044604925031E-16,1.,0.));
#446=DIRECTION('ref_axis',(0.,0.,-1.));
#447=DIRECTION('center_axis',(2.22044604925031E-16,1.,0.));
#448=DIRECTION('ref_axis',(0.,0.,-1.));
#449=DIRECTION('center_axis',(2.22044604925031E-16,1.,0.));
#450=DIRECTION('ref_axis',(0.,0.,-1.));
#451=DIRECTION('center_axis',(2.22044604925031E-16,1.,0.));
#452=DIRECTION('ref_axis',(0.,0.,-1.));
#453=DIRECTION('center_axis',(1.,-2.22044604925031E-16,-1.22464679914735E-16));
#454=DIRECTION('ref_axis',(1.22464679914735E-16,0.,1.));
#455=DIRECTION('center_axis',(2.22044604925031E-16,1.,0.));
#456=DIRECTION('ref_axis',(-1.,2.22044604925031E-16,0.));
#457=DIRECTION('center_axis',(2.22044604925031E-16,1.,0.));
#458=DIRECTION('ref_axis',(0.,0.,-1.));
#459=DIRECTION('center_axis',(2.22044604925031E-16,1.,0.));
#460=DIRECTION('ref_axis',(0.,0.,-1.));
#461=DIRECTION('',(-2.22044604925031E-16,-1.,0.));
#462=DIRECTION('center_axis',(2.22044604925031E-16,1.,0.));
#463=DIRECTION('ref_axis',(0.,0.,-1.));
#464=DIRECTION('center_axis',(2.22044604925031E-16,1.,0.));
#465=DIRECTION('ref_axis',(0.,0.,-1.));
#466=DIRECTION('center_axis',(2.22044604925031E-16,1.,0.));
#467=DIRECTION('ref_axis',(0.,0.,-1.));
#468=DIRECTION('center_axis',(2.22044604925031E-16,1.,0.));
#469=DIRECTION('ref_axis',(0.,0.,-1.));
#470=DIRECTION('center_axis',(1.,-2.22044604925031E-16,-1.22464679914735E-16));
#471=DIRECTION('ref_axis',(1.22464679914735E-16,0.,1.));
#472=DIRECTION('center_axis',(2.22044604925031E-16,1.,0.));
#473=DIRECTION('ref_axis',(0.,0.,-1.));
#474=DIRECTION('center_axis',(-2.22044604925031E-16,-1.,0.));
#475=DIRECTION('ref_axis',(0.,0.,1.));
#476=DIRECTION('center_axis',(2.22044604925031E-16,1.,0.));
#477=DIRECTION('ref_axis',(-1.,2.22044604925031E-16,0.));
#478=DIRECTION('center_axis',(2.22044604925031E-16,1.,0.));
#479=DIRECTION('ref_axis',(0.,0.,-1.));
#480=DIRECTION('center_axis',(2.22044604925031E-16,1.,0.));
#481=DIRECTION('ref_axis',(0.,0.,-1.));
#482=DIRECTION('',(-2.22044604925031E-16,-1.,0.));
#483=DIRECTION('center_axis',(2.22044604925031E-16,1.,0.));
#484=DIRECTION('ref_axis',(0.,0.,-1.));
#485=DIRECTION('center_axis',(2.22044604925031E-16,1.,0.));
#486=DIRECTION('ref_axis',(0.,0.,-1.));
#487=DIRECTION('center_axis',(2.22044604925031E-16,1.,0.));
#488=DIRECTION('ref_axis',(0.,0.,-1.));
#489=DIRECTION('center_axis',(2.22044604925031E-16,1.,0.));
#490=DIRECTION('ref_axis',(0.,0.,-1.));
#491=DIRECTION('center_axis',(2.22044604925031E-16,1.,0.));
#492=DIRECTION('ref_axis',(0.,0.,-1.));
#493=DIRECTION('center_axis',(-2.22044604925031E-16,-1.,0.));
#494=DIRECTION('ref_axis',(-1.,2.22044604925031E-16,0.));
#495=DIRECTION('center_axis',(2.22044604925031E-16,1.,0.));
#496=DIRECTION('ref_axis',(0.,0.,-1.));
#497=DIRECTION('center_axis',(2.22044604925031E-16,1.,0.));
#498=DIRECTION('ref_axis',(0.,0.,-1.));
#499=DIRECTION('',(0.504943986286787,-0.863152113310747,-6.18378036554819E-17));
#500=DIRECTION('center_axis',(2.22044604925031E-16,1.,0.));
#501=DIRECTION('ref_axis',(0.,0.,-1.));
#502=DIRECTION('center_axis',(-2.22044604925031E-16,-1.,0.));
#503=DIRECTION('ref_axis',(0.,0.,1.));
#504=DIRECTION('center_axis',(2.22044604925031E-16,1.,0.));
#505=DIRECTION('ref_axis',(0.,0.,-1.));
#506=DIRECTION('center_axis',(2.22044604925031E-16,1.,0.));
#507=DIRECTION('ref_axis',(0.,0.,-1.));
#508=DIRECTION('center_axis',(2.22044604925031E-16,1.,0.));
#509=DIRECTION('ref_axis',(-1.,2.22044604925031E-16,0.));
#510=DIRECTION('center_axis',(2.22044604925031E-16,1.,0.));
#511=DIRECTION('ref_axis',(0.,0.,-1.));
#512=DIRECTION('center_axis',(2.22044604925031E-16,1.,0.));
#513=DIRECTION('ref_axis',(0.,0.,-1.));
#514=DIRECTION('',(-2.22044604925031E-16,-1.,0.));
#515=DIRECTION('center_axis',(-2.22044604925031E-16,-1.,0.));
#516=DIRECTION('ref_axis',(-1.,2.22044604925031E-16,0.));
#517=DIRECTION('center_axis',(2.22044604925031E-16,1.,0.));
#518=DIRECTION('ref_axis',(0.,0.,-1.));
#519=DIRECTION('center_axis',(2.22044604925031E-16,1.,0.));
#520=DIRECTION('ref_axis',(0.,0.,-1.));
#521=DIRECTION('',(0.707106781186541,-0.707106781186554,-8.65956056235486E-17));
#522=DIRECTION('center_axis',(2.22044604925031E-16,1.,0.));
#523=DIRECTION('ref_axis',(0.,0.,-1.));
#524=CARTESIAN_POINT('',(0.,0.,0.));
#525=CARTESIAN_POINT('Origin',(0.,61.45,-10.));
#526=CARTESIAN_POINT('',(9.4603965234133E-16,76.9,-10.));
#527=CARTESIAN_POINT('',(-15.45,61.45,-10.));
#528=CARTESIAN_POINT('Origin',(0.,61.45,-10.));
#529=CARTESIAN_POINT('',(-13.45,61.45,-12.));
#530=CARTESIAN_POINT('Origin',(-13.45,61.45,-10.));
#531=CARTESIAN_POINT('',(-2.47072491727978E-15,74.9,-12.));
#532=CARTESIAN_POINT('Origin',(0.,61.45,-12.));
#533=CARTESIAN_POINT('Origin',(0.,61.45,-12.));
#534=CARTESIAN_POINT('Origin',(0.,61.45,-10.));
#535=CARTESIAN_POINT('Origin',(0.,61.45,-12.));
#536=CARTESIAN_POINT('',(-2.83811895702399E-15,76.9,10.));
#537=CARTESIAN_POINT('',(-15.45,61.45,10.));
#538=CARTESIAN_POINT('Origin',(0.,61.45,10.));
#539=CARTESIAN_POINT('Origin',(0.,61.45,10.));
#540=CARTESIAN_POINT('',(-15.45,61.45,-12.));
#541=CARTESIAN_POINT('Origin',(0.,61.45,-12.));
#542=CARTESIAN_POINT('Origin',(0.,61.45,10.));
#543=CARTESIAN_POINT('',(8.23574972426594E-16,74.9,12.));
#544=CARTESIAN_POINT('',(-13.45,61.45,12.));
#545=CARTESIAN_POINT('Origin',(0.,61.45,12.));
#546=CARTESIAN_POINT('Origin',(-13.45,61.45,10.));
#547=CARTESIAN_POINT('Origin',(0.,61.45,12.));
#548=CARTESIAN_POINT('Origin',(0.,61.45,12.));
#549=CARTESIAN_POINT('Origin',(0.,49.9132164229372,0.));
#550=CARTESIAN_POINT('',(-36.2180805733027,50.8264328458744,0.));
#551=CARTESIAN_POINT('',(3.60082093760211E-15,50.8264328458744,36.2180805733027));
#552=CARTESIAN_POINT('Origin',(0.,50.8264328458744,0.));
#553=CARTESIAN_POINT('',(36.2180805733027,50.8264328458744,-4.43543564453561E-15));
#554=CARTESIAN_POINT('Origin',(0.,50.8264328458744,0.));
#555=CARTESIAN_POINT('',(31.1999975711124,49.,-3.8208977158868E-15));
#556=CARTESIAN_POINT('',(33.7090390722075,49.9132164229372,-4.1281666802112E-15));
#557=CARTESIAN_POINT('',(-31.1999975711124,49.,0.));
#558=CARTESIAN_POINT('Origin',(0.,49.,0.));
#559=CARTESIAN_POINT('Origin',(0.,49.,0.));
#560=CARTESIAN_POINT('Origin',(0.,50.8264328458744,0.));
#561=CARTESIAN_POINT('Origin',(0.,54.5852033290181,0.));
#562=CARTESIAN_POINT('',(-38.85,54.5852033290181,0.));
#563=CARTESIAN_POINT('',(4.75775281468747E-15,54.5852033290181,38.85));
#564=CARTESIAN_POINT('Origin',(0.,54.5852033290181,0.));
#565=CARTESIAN_POINT('',(38.85,54.5852033290181,-4.75775281468747E-15));
#566=CARTESIAN_POINT('Origin',(0.,54.5852033290181,0.));
#567=CARTESIAN_POINT('Origin',(0.,54.5852033290181,0.));
#568=CARTESIAN_POINT('Origin',(4.26789409502853E-15,54.5852033290181,34.85));
#569=CARTESIAN_POINT('Origin',(0.,62.292601664509,0.));
#570=CARTESIAN_POINT('',(-38.85,70.,0.));
#571=CARTESIAN_POINT('',(9.19864491318809E-15,70.,38.85));
#572=CARTESIAN_POINT('Origin',(4.44089209850063E-15,70.,0.));
#573=CARTESIAN_POINT('',(38.85,70.,-4.75775281468747E-15));
#574=CARTESIAN_POINT('Origin',(4.44089209850063E-15,70.,0.));
#575=CARTESIAN_POINT('',(38.85,62.292601664509,-4.75775281468747E-15));
#576=CARTESIAN_POINT('Origin',(4.44089209850063E-15,70.,0.));
#577=CARTESIAN_POINT('Origin',(4.44089209850063E-15,70.,0.));
#578=CARTESIAN_POINT('',(-36.85,72.,0.));
#579=CARTESIAN_POINT('',(9.39780476320868E-15,72.,36.85));
#580=CARTESIAN_POINT('Origin',(4.44089209850063E-15,72.,0.));
#581=CARTESIAN_POINT('Origin',(4.44089209850063E-15,72.,0.));
#582=CARTESIAN_POINT('Origin',(8.95371555335862E-15,70.,36.85));
#583=CARTESIAN_POINT('Origin',(4.44089209850063E-15,72.,0.));
#584=CARTESIAN_POINT('Origin',(-31.1999975711124,49.,0.));
#585=CARTESIAN_POINT('Origin',(4.44089209850063E-15,85.75,0.));
#586=CARTESIAN_POINT('',(-20.,89.,0.));
#587=CARTESIAN_POINT('',(20.,89.,-2.44929359829471E-15));
#588=CARTESIAN_POINT('Origin',(8.88178419700125E-15,89.,0.));
#589=CARTESIAN_POINT('Origin',(8.88178419700125E-15,89.,0.));
#590=CARTESIAN_POINT('',(20.,82.5,-2.44929359829471E-15));
#591=CARTESIAN_POINT('',(20.,85.75,-2.44929359829471E-15));
#592=CARTESIAN_POINT('',(-20.,82.5,0.));
#593=CARTESIAN_POINT('Origin',(4.44089209850063E-15,82.5,0.));
#594=CARTESIAN_POINT('Origin',(4.44089209850063E-15,82.5,0.));
#595=CARTESIAN_POINT('Origin',(-17.725,89.,0.));
#596=CARTESIAN_POINT('',(-17.725,89.,0.));
#597=CARTESIAN_POINT('',(17.725,89.,-2.17068645148868E-15));
#598=CARTESIAN_POINT('Origin',(8.88178419700125E-15,89.,0.));
#599=CARTESIAN_POINT('Origin',(8.88178419700125E-15,89.,0.));
#600=CARTESIAN_POINT('Origin',(8.88178419700125E-15,91.5,0.));
#601=CARTESIAN_POINT('',(-14.8,94.,0.));
#602=CARTESIAN_POINT('',(14.8,94.,-1.81247726273808E-15));
#603=CARTESIAN_POINT('Origin',(8.88178419700125E-15,94.,0.));
#604=CARTESIAN_POINT('Origin',(8.88178419700125E-15,94.,0.));
#605=CARTESIAN_POINT('',(16.2625,91.5,-1.99158185711338E-15));
#606=CARTESIAN_POINT('Origin',(8.88178419700125E-15,94.,0.));
#607=CARTESIAN_POINT('Origin',(-27.,72.,0.));
#608=CARTESIAN_POINT('',(-27.,72.,0.));
#609=CARTESIAN_POINT('',(27.,72.,-3.30654635769785E-15));
#610=CARTESIAN_POINT('Origin',(4.44089209850063E-15,72.,0.));
#611=CARTESIAN_POINT('Origin',(4.44089209850063E-15,72.,0.));
#612=CARTESIAN_POINT('Origin',(4.44089209850063E-15,76.75,0.));
#613=CARTESIAN_POINT('',(-27.,81.5,0.));
#614=CARTESIAN_POINT('',(27.,81.5,-3.30654635769785E-15));
#615=CARTESIAN_POINT('Origin',(4.44089209850063E-15,81.5,0.));
#616=CARTESIAN_POINT('Origin',(4.44089209850063E-15,81.5,0.));
#617=CARTESIAN_POINT('',(27.,76.75,-3.30654635769785E-15));
#618=CARTESIAN_POINT('Origin',(4.44089209850063E-15,82.,0.));
#619=CARTESIAN_POINT('',(-26.,82.5,0.));
#620=CARTESIAN_POINT('',(26.,82.5,-3.18408167778312E-15));
#621=CARTESIAN_POINT('Origin',(4.44089209850063E-15,82.5,0.));
#622=CARTESIAN_POINT('Origin',(4.44089209850063E-15,82.5,0.));
#623=CARTESIAN_POINT('',(26.5,82.,-3.24531401774049E-15));
#624=CARTESIAN_POINT('Origin',(-20.,82.5,0.));
#625=UNCERTAINTY_MEASURE_WITH_UNIT(LENGTH_MEASURE(0.01),#629,
'DISTANCE_ACCURACY_VALUE',
'Maximum model space distance between geometric entities at asserted c
onnectivities');
#626=UNCERTAINTY_MEASURE_WITH_UNIT(LENGTH_MEASURE(0.01),#629,
'DISTANCE_ACCURACY_VALUE',
'Maximum model space distance between geometric entities at asserted c
onnectivities');
#627=(
GEOMETRIC_REPRESENTATION_CONTEXT(3)
GLOBAL_UNCERTAINTY_ASSIGNED_CONTEXT((#625))
GLOBAL_UNIT_ASSIGNED_CONTEXT((#629,#631,#632))
REPRESENTATION_CONTEXT('','3D')
);
#628=(
GEOMETRIC_REPRESENTATION_CONTEXT(3)
GLOBAL_UNCERTAINTY_ASSIGNED_CONTEXT((#626))
GLOBAL_UNIT_ASSIGNED_CONTEXT((#629,#631,#632))
REPRESENTATION_CONTEXT('','3D')
);
#629=(
LENGTH_UNIT()
NAMED_UNIT(*)
SI_UNIT(.MILLI.,.METRE.)
);
#630=(
LENGTH_UNIT()
NAMED_UNIT(*)
SI_UNIT($,.METRE.)
);
#631=(
NAMED_UNIT(*)
PLANE_ANGLE_UNIT()
SI_UNIT($,.RADIAN.)
);
#632=(
NAMED_UNIT(*)
SI_UNIT($,.STERADIAN.)
SOLID_ANGLE_UNIT()
);
#633=SHAPE_DEFINITION_REPRESENTATION(#634,#635);
#634=PRODUCT_DEFINITION_SHAPE('',$,#637);
#635=SHAPE_REPRESENTATION('',(#340),#627);
#636=PRODUCT_DEFINITION_CONTEXT('part definition',#641,'design');
#637=PRODUCT_DEFINITION('4-056','4-056 v7',#638,#636);
#638=PRODUCT_DEFINITION_FORMATION('',$,#643);
#639=PRODUCT_RELATED_PRODUCT_CATEGORY('4-056 v7','4-056 v7',(#643));
#640=APPLICATION_PROTOCOL_DEFINITION('international standard',
'automotive_design',2009,#641);
#641=APPLICATION_CONTEXT(
'Core Data for Automotive Mechanical Design Process');
#642=PRODUCT_CONTEXT('part definition',#641,'mechanical');
#643=PRODUCT('4-056','4-056 v7',$,(#642));
#644=PRESENTATION_STYLE_ASSIGNMENT((#645));
#645=SURFACE_STYLE_USAGE(.BOTH.,#646);
#646=SURFACE_SIDE_STYLE('',(#647));
#647=SURFACE_STYLE_FILL_AREA(#648);
#648=FILL_AREA_STYLE('Steel - Satin',(#649));
#649=FILL_AREA_STYLE_COLOUR('Steel - Satin',#650);
#650=COLOUR_RGB('Steel - Satin',0.627450980392157,0.627450980392157,0.627450980392157);
ENDSEC;
END-ISO-10303-21;
