  0
SECTION
  2
HEADER
  9
$LIMMIN
 10
396.789368
 20
141.930435
  9
$LIMMAX
 10
677.541382
 20
216.930435
  9
$EXTMIN
 10
396.789368
 20
141.930435
  9
$EXTMAX
 10
677.541382
 20
216.930435
  0
ENDSEC
  0
SECTION
  2
TABLES
  0
TABLE
  2
LTYPE
 70
     3
  0
LTYPE
  2
CONTINUOUS
 70
    64
  3
Ausgezogene Linie
 72
    65
 73
     0
 40
0.0
  0
LTYPE
  2
DASHED
 70
    64
  3
__ __ __ __ __ __ __ __ __ __ __ __ __ __ __
 72
    65
 73
     2
 40
0.75
 49
0.5
 49
-0.25
  0
LTYPE
  2
DASHDOT
 70
    64
  3
__ . __ . __ . __ . __ . __ . __ . __ . __ . __
 72
    65
 73
     4
 40
1.0
 49
0.5
 49
-0.25
 49
0.0
 49
-0.25
  0
ENDTAB
  0
TABLE
  2
LAYER
 70
     4
  0
LAYER
  2
LC-003-002-----0
 70
    64
 62
     7
  6
CONTINUOUS
  0
LAYER
  2
LC-004-006-----0
 70
    64
 62
     7
  6
CONTINUOUS
  0
LAYER
  2
LC-006-012-----0
 70
    64
 62
     7
  6
CONTINUOUS
  0
LAYER
  2
LC-007-004-----0
 70
    64
 62
     7
  6
CONTINUOUS
  0
ENDTAB
  0
TABLE
  2
STYLE
 70
     1
  0
STYLE
  2
TXT8
 70
    64
 40
0.0
 41
1.0
 50
0.0
 71
     0
 42
3.500000
  3
TXT8
  4

  0
ENDTAB
  0
ENDSEC
  0
SECTION
  2
BLOCKS
  0
ENDSEC
  0
SECTION
  2
ENTITIES
  0
LINE
  8
LC-004-006-----0
 62
     2
  6
DASHDOT
 10
396.789368
 20
179.430435
 11
677.541382
 21
179.430435
  0
LINE
  8
LC-003-002-----0
 62
     1
  6
CONTINUOUS
 10
442.755615
 20
216.930435
 11
459.355591
 21
216.930435
  0
LINE
  8
LC-003-002-----0
 62
     1
  6
CONTINUOUS
 10
442.755615
 20
141.930435
 11
459.355591
 21
141.930435
  0
LINE
  8
LC-003-002-----0
 62
     1
  6
CONTINUOUS
 10
440.755615
 20
214.930435
 11
440.755615
 21
143.930435
  0
LINE
  8
LC-003-002-----0
 62
     1
  6
CONTINUOUS
 10
632.755615
 20
214.930435
 11
632.755615
 21
143.930435
  0
LINE
  8
LC-003-002-----0
 62
     1
  6
CONTINUOUS
 10
409.389832
 20
204.430435
 11
440.755615
 21
204.430435
  0
LINE
  8
LC-003-002-----0
 62
     1
  6
CONTINUOUS
 10
406.958405
 20
154.430435
 11
440.755615
 21
154.430435
  0
LINE
  8
LC-007-004-----0
 62
     2
  6
CONTINUOUS
 10
406.958405
 20
154.430435
 11
408.338654
 21
161.217026
  0
LINE
  8
LC-007-004-----0
 62
     2
  6
CONTINUOUS
 10
408.338654
 20
161.217026
 11
404.497162
 21
185.500504
  0
LINE
  8
LC-007-004-----0
 62
     2
  6
CONTINUOUS
 10
404.497162
 20
185.500504
 11
409.389832
 21
204.430435
  0
LINE
  8
LC-007-004-----0
 62
     2
  6
CONTINUOUS
 10
670.529358
 20
154.430435
 11
673.055542
 21
165.498856
  0
LINE
  8
LC-007-004-----0
 62
     2
  6
CONTINUOUS
 10
673.055542
 20
165.498856
 11
668.222656
 21
191.685349
  0
LINE
  8
LC-007-004-----0
 62
     2
  6
CONTINUOUS
 10
668.222656
 20
191.685349
 11
669.834045
 21
204.430435
  0
LINE
  8
LC-006-012-----0
 62
     2
  6
DASHED
 10
440.755615
 20
204.430435
 11
632.755615
 21
204.430435
  0
LINE
  8
LC-003-002-----0
 62
     1
  6
CONTINUOUS
 10
632.755615
 20
204.430435
 11
669.834045
 21
204.430435
  0
LINE
  8
LC-006-012-----0
 62
     2
  6
DASHED
 10
440.755615
 20
154.430435
 11
632.755615
 21
154.430435
  0
LINE
  8
LC-003-002-----0
 62
     1
  6
CONTINUOUS
 10
632.755615
 20
154.430435
 11
670.529358
 21
154.430435
  0
LINE
  8
LC-003-002-----0
 62
     1
  6
CONTINUOUS
 10
611.505615
 20
141.930435
 11
611.505615
 21
216.930435
  0
LINE
  8
LC-003-002-----0
 62
     1
  6
CONTINUOUS
 10
614.155579
 20
141.930435
 11
614.155579
 21
216.930435
  0
LINE
  8
LC-003-002-----0
 62
     1
  6
CONTINUOUS
 10
611.505615
 20
215.430435
 11
614.155579
 21
215.430435
  0
LINE
  8
LC-003-002-----0
 62
     1
  6
CONTINUOUS
 10
611.505615
 20
143.430435
 11
614.155579
 21
143.430435
  0
LINE
  8
LC-003-002-----0
 62
     1
  6
CONTINUOUS
 10
614.155579
 20
216.930435
 11
630.755615
 21
216.930435
  0
LINE
  8
LC-003-002-----0
 62
     1
  6
CONTINUOUS
 10
614.155579
 20
141.930435
 11
630.755615
 21
141.930435
  0
LINE
  8
LC-003-002-----0
 62
     1
  6
CONTINUOUS
 10
462.005615
 20
141.930435
 11
462.005615
 21
216.930435
  0
LINE
  8
LC-003-002-----0
 62
     1
  6
CONTINUOUS
 10
459.355591
 20
141.930435
 11
459.355591
 21
216.930435
  0
LINE
  8
LC-003-002-----0
 62
     1
  6
CONTINUOUS
 10
462.005615
 20
215.430435
 11
459.355591
 21
215.430435
  0
LINE
  8
LC-003-002-----0
 62
     1
  6
CONTINUOUS
 10
462.005615
 20
143.430435
 11
459.355591
 21
143.430435
  0
LINE
  8
LC-003-002-----0
 62
     1
  6
CONTINUOUS
 10
462.005615
 20
141.930435
 11
611.505615
 21
141.930435
  0
LINE
  8
LC-003-002-----0
 62
     1
  6
CONTINUOUS
 10
462.005615
 20
216.930435
 11
611.505615
 21
216.930435
  0
ARC
  8
LC-003-002-----0
 62
     1
  6
CONTINUOUS
 10
442.755615
 20
214.930435
 40
2.000000
 50
90.000003
 51
180.000009
  0
ARC
  8
LC-003-002-----0
 62
     1
  6
CONTINUOUS
 10
442.755615
 20
143.930435
 40
2.000000
 50
180.000009
 51
269.999997
  0
ARC
  8
LC-003-002-----0
 62
     1
  6
CONTINUOUS
 10
630.755615
 20
143.930435
 40
2.000000
 50
269.999997
 51
0.000000
  0
ARC
  8
LC-003-002-----0
 62
     1
  6
CONTINUOUS
 10
630.755615
 20
214.930435
 40
2.000000
 50
0.000000
 51
90.000003
  0
ENDSEC
  0
EOF
