  0
SECTION
  2
HEADER
  9
$LIMMIN
 10
46.791981
 20
347.108582
  9
$LIMMAX
 10
169.290955
 20
375.382874
  9
$EXTMIN
 10
46.791981
 20
347.108582
  9
$EXTMAX
 10
169.290955
 20
375.382874
  0
ENDSEC
  0
SECTION
  2
TABLES
  0
TABLE
  2
LTYPE
 70
     3
  0
LTYPE
  2
CONTINUOUS
 70
    64
  3
Ausgezogene Linie
 72
    65
 73
     0
 40
0.0
  0
LTYPE
  2
DASHED
 70
    64
  3
__ __ __ __ __ __ __ __ __ __ __ __ __ __ __
 72
    65
 73
     2
 40
0.75
 49
0.5
 49
-0.25
  0
LTYPE
  2
DASHDOT
 70
    64
  3
__ . __ . __ . __ . __ . __ . __ . __ . __ . __
 72
    65
 73
     4
 40
1.0
 49
0.5
 49
-0.25
 49
0.0
 49
-0.25
  0
ENDTAB
  0
TABLE
  2
LAYER
 70
     4
  0
LAYER
  2
LC-003-002-----0
 70
    64
 62
     7
  6
CONTINUOUS
  0
LAYER
  2
LC-005-002-RND-0
 70
    64
 62
     7
  6
CONTINUOUS
  0
LAYER
  2
LC-004-006-----0
 70
    64
 62
     7
  6
CONTINUOUS
  0
LAYER
  2
LC-006-012-----0
 70
    64
 62
     7
  6
CONTINUOUS
  0
ENDTAB
  0
TABLE
  2
STYLE
 70
     1
  0
STYLE
  2
TXT8
 70
    64
 40
0.0
 41
1.0
 50
0.0
 71
     0
 42
3.500000
  3
TXT8
  4

  0
ENDTAB
  0
ENDSEC
  0
SECTION
  2
BLOCKS
  0
ENDSEC
  0
SECTION
  2
ENTITIES
  0
LINE
  8
LC-005-002-RND-0
 62
     2
  6
DASHDOT
 10
46.791981
 20
361.312683
 11
115.558998
 21
361.312683
  0
LINE
  8
LC-003-002-----0
 62
     1
  6
CONTINUOUS
 10
62.933723
 20
373.312683
 11
67.633720
 21
373.312683
  0
LINE
  8
LC-003-002-----0
 62
     1
  6
CONTINUOUS
 10
62.933723
 20
349.312683
 11
67.633720
 21
349.312683
  0
LINE
  8
LC-003-002-----0
 62
     1
  6
CONTINUOUS
 10
62.433723
 20
372.812683
 11
62.433723
 21
349.812683
  0
LINE
  8
LC-003-002-----0
 62
     1
  6
CONTINUOUS
 10
98.433723
 20
372.812683
 11
98.433723
 21
349.812683
  0
ARC
  8
LC-003-002-----0
 62
     1
  6
CONTINUOUS
 10
62.933723
 20
372.812683
 40
0.500000
 50
90.000003
 51
180.000009
  0
ARC
  8
LC-003-002-----0
 62
     1
  6
CONTINUOUS
 10
62.933723
 20
349.812683
 40
0.500000
 50
180.000009
 51
269.999997
  0
ARC
  8
LC-003-002-----0
 62
     1
  6
CONTINUOUS
 10
97.933723
 20
349.812683
 40
0.500000
 50
269.999997
 51
0.000000
  0
ARC
  8
LC-003-002-----0
 62
     1
  6
CONTINUOUS
 10
97.933723
 20
372.812683
 40
0.500000
 50
0.000000
 51
90.000003
  0
LINE
  8
LC-005-002-RND-0
 62
     2
  6
DASHDOT
 10
80.433723
 20
348.100952
 11
80.433723
 21
374.190460
  0
LINE
  8
LC-003-002-----0
 62
     1
  6
CONTINUOUS
 10
91.933723
 20
349.312683
 11
91.933723
 21
373.312683
  0
LINE
  8
LC-003-002-----0
 62
     1
  6
CONTINUOUS
 10
68.933723
 20
349.312683
 11
68.933723
 21
373.312683
  0
LINE
  8
LC-003-002-----0
 62
     1
  6
CONTINUOUS
 10
93.233719
 20
349.312683
 11
93.233719
 21
373.312683
  0
LINE
  8
LC-003-002-----0
 62
     1
  6
CONTINUOUS
 10
67.633720
 20
349.312683
 11
67.633720
 21
373.312683
  0
LINE
  8
LC-003-002-----0
 62
     1
  6
CONTINUOUS
 10
67.633720
 20
349.812683
 11
68.933723
 21
349.812683
  0
LINE
  8
LC-003-002-----0
 62
     1
  6
CONTINUOUS
 10
67.633720
 20
372.812683
 11
68.933723
 21
372.812683
  0
LINE
  8
LC-003-002-----0
 62
     1
  6
CONTINUOUS
 10
68.933723
 20
349.312683
 11
79.683723
 21
349.312683
  0
LINE
  8
LC-003-002-----0
 62
     1
  6
CONTINUOUS
 10
91.933723
 20
349.812683
 11
93.233719
 21
349.812683
  0
LINE
  8
LC-003-002-----0
 62
     1
  6
CONTINUOUS
 10
93.233719
 20
349.312683
 11
97.933723
 21
349.312683
  0
LINE
  8
LC-003-002-----0
 62
     1
  6
CONTINUOUS
 10
93.233719
 20
373.312683
 11
97.933723
 21
373.312683
  0
LINE
  8
LC-003-002-----0
 62
     1
  6
CONTINUOUS
 10
91.933723
 20
372.812683
 11
93.233719
 21
372.812683
  0
LINE
  8
LC-003-002-----0
 62
     1
  6
CONTINUOUS
 10
68.933723
 20
373.312683
 11
79.683723
 21
373.312683
  0
LINE
  8
LC-003-002-----0
 62
     1
  6
CONTINUOUS
 10
81.183723
 20
349.312683
 11
81.183723
 21
359.812683
  0
LINE
  8
LC-003-002-----0
 62
     1
  6
CONTINUOUS
 10
79.683723
 20
349.312683
 11
79.683723
 21
359.812683
  0
ARC
  8
LC-003-002-----0
 62
     1
  6
CONTINUOUS
 10
80.433723
 20
349.312683
 40
0.750000
 50
0.000000
 51
180.000009
  0
ARC
  8
LC-003-002-----0
 62
     1
  6
CONTINUOUS
 10
80.433723
 20
373.312683
 40
0.750000
 50
180.000009
 51
0.000000
  0
LINE
  8
LC-003-002-----0
 62
     1
  6
CONTINUOUS
 10
81.183723
 20
373.312683
 11
91.933723
 21
373.312683
  0
LINE
  8
LC-003-002-----0
 62
     1
  6
CONTINUOUS
 10
81.183723
 20
349.312683
 11
91.933723
 21
349.312683
  0
LINE
  8
LC-003-002-----0
 62
     1
  6
CONTINUOUS
 10
48.950966
 20
367.812683
 11
62.433723
 21
367.812683
  0
LINE
  8
LC-003-002-----0
 62
     1
  6
CONTINUOUS
 10
50.295101
 20
354.812683
 11
62.433723
 21
354.812683
  0
LINE
  8
LC-006-012-----0
 62
     2
  6
CONTINUOUS
 10
50.295101
 20
354.812683
 11
50.295101
 21
357.092682
  0
LINE
  8
LC-006-012-----0
 62
     2
  6
CONTINUOUS
 10
50.295101
 20
357.092682
 11
49.123638
 21
364.561523
  0
LINE
  8
LC-006-012-----0
 62
     2
  6
CONTINUOUS
 10
49.123638
 20
364.561523
 11
48.950966
 21
367.812683
  0
LINE
  8
LC-006-012-----0
 62
     2
  6
CONTINUOUS
 10
111.681442
 20
354.812683
 11
111.177284
 21
357.633240
  0
LINE
  8
LC-006-012-----0
 62
     2
  6
CONTINUOUS
 10
111.177284
 20
357.633240
 11
111.177284
 21
362.827209
  0
LINE
  8
LC-006-012-----0
 62
     2
  6
CONTINUOUS
 10
111.177284
 20
362.827209
 11
110.658524
 21
367.812683
  0
LINE
  8
LC-004-006-----0
 62
     2
  6
DASHED
 10
62.433723
 20
367.812683
 11
98.433723
 21
367.812683
  0
LINE
  8
LC-003-002-----0
 62
     1
  6
CONTINUOUS
 10
98.433723
 20
367.812683
 11
110.658524
 21
367.812683
  0
LINE
  8
LC-004-006-----0
 62
     2
  6
DASHED
 10
62.433723
 20
354.812683
 11
98.433723
 21
354.812683
  0
LINE
  8
LC-003-002-----0
 62
     1
  6
CONTINUOUS
 10
98.433723
 20
354.812683
 11
111.681442
 21
354.812683
  0
LINE
  8
LC-005-002-RND-0
 62
     2
  6
DASHDOT
 10
140.460281
 20
361.312683
 11
169.290955
 21
361.312683
  0
LINE
  8
LC-005-002-RND-0
 62
     2
  6
DASHDOT
 10
155.030212
 20
375.382874
 11
155.030212
 21
347.108582
  0
ARC
  8
LC-003-002-----0
 62
     1
  6
CONTINUOUS
 10
155.030212
 20
361.312683
 40
6.500000
 50
27.847305
 51
132.152699
  0
CIRCLE
  8
LC-003-002-----0
 62
     1
  6
CONTINUOUS
 10
155.030212
 20
361.312683
 40
12.000000
  0
LINE
  8
LC-005-002-RND-0
 62
     2
  6
DASHDOT
 10
154.145004
 20
356.292450
 11
153.760269
 21
354.110565
  0
ARC
  8
LC-003-002-----0
 62
     1
  6
CONTINUOUS
 10
161.514084
 20
363.672638
 40
1.000000
 50
137.443227
 51
262.556765
  0
ARC
  8
LC-003-002-----0
 62
     1
  6
CONTINUOUS
 10
149.744492
 20
365.747925
 40
1.000000
 50
257.443234
 51
22.556766
  0
ARC
  8
LC-003-002-----0
 62
     1
  6
CONTINUOUS
 10
153.832031
 20
354.517517
 40
1.000000
 50
17.443233
 51
142.556771
  0
ARC
  8
LC-003-002-----0
 62
     1
  6
CONTINUOUS
 10
155.030212
 20
361.312683
 40
6.500000
 50
267.847306
 51
12.152695
  0
ARC
  8
LC-003-002-----0
 62
     1
  6
CONTINUOUS
 10
155.030212
 20
361.312683
 40
6.500000
 50
147.847299
 51
252.152693
  0
LINE
  8
LC-005-002-RND-0
 62
     2
  6
DASHDOT
 10
151.125137
 20
364.589417
 11
149.427933
 21
366.013550
  0
LINE
  8
LC-004-006-----0
 62
     2
  6
DASHED
 10
165.530212
 20
359.812683
 11
166.936081
 21
359.812683
  0
LINE
  8
LC-004-006-----0
 62
     2
  6
DASHED
 10
165.530212
 20
362.812683
 11
166.936081
 21
362.812683
  0
LINE
  8
LC-005-002-RND-0
 62
     2
  6
DASHDOT
 10
162.195145
 20
367.324799
 11
165.014786
 21
369.690735
  0
LINE
  8
LC-004-006-----0
 62
     2
  6
DASHED
 10
162.677246
 20
366.750275
 11
164.686859
 21
368.436523
  0
LINE
  8
LC-004-006-----0
 62
     2
  6
DASHED
 10
165.530212
 20
362.812683
 11
165.530212
 21
359.812683
  0
LINE
  8
LC-004-006-----0
 62
     2
  6
DASHED
 10
161.713058
 20
367.899323
 11
163.722672
 21
369.585602
  0
LINE
  8
LC-005-002-RND-0
 62
     2
  6
DASHDOT
 10
146.241104
 20
364.511658
 11
142.782318
 21
365.770569
  0
LINE
  8
LC-004-006-----0
 62
     2
  6
DASHED
 10
146.497620
 20
365.216431
 11
144.032455
 21
366.113678
  0
LINE
  8
LC-004-006-----0
 62
     2
  6
DASHED
 10
145.984589
 20
363.806885
 11
143.519424
 21
364.704132
  0
LINE
  8
LC-005-002-RND-0
 62
     2
  6
DASHDOT
 10
156.654373
 20
352.101624
 11
157.293518
 21
348.476776
  0
LINE
  8
LC-004-006-----0
 62
     2
  6
DASHED
 10
155.915756
 20
351.971375
 11
156.371307
 21
349.387878
  0
LINE
  8
LC-004-006-----0
 62
     2
  6
DASHED
 10
157.392975
 20
352.231842
 11
157.848511
 21
349.648346
  0
LINE
  8
LC-003-002-----0
 62
     1
  6
CONTINUOUS
 10
86.433723
 20
362.812683
 11
74.433723
 21
362.812683
  0
LINE
  8
LC-003-002-----0
 62
     1
  6
CONTINUOUS
 10
86.433723
 20
359.812683
 11
74.433723
 21
359.812683
  0
LINE
  8
LC-005-002-RND-0
 62
     2
  6
DASHDOT
 10
86.433723
 20
358.035950
 11
86.433723
 21
364.457031
  0
LINE
  8
LC-005-002-RND-0
 62
     2
  6
DASHDOT
 10
74.433723
 20
358.035950
 11
74.433723
 21
364.457031
  0
ARC
  8
LC-003-002-----0
 62
     1
  6
CONTINUOUS
 10
74.433723
 20
361.312683
 40
1.500000
 50
90.000003
 51
269.999997
  0
ARC
  8
LC-003-002-----0
 62
     1
  6
CONTINUOUS
 10
86.433723
 20
361.312683
 40
1.500000
 50
269.999997
 51
90.000003
  0
LINE
  8
LC-003-002-----0
 62
     1
  6
CONTINUOUS
 10
79.683723
 20
362.812683
 11
79.683723
 21
373.312683
  0
LINE
  8
LC-003-002-----0
 62
     1
  6
CONTINUOUS
 10
81.183723
 20
362.812683
 11
81.183723
 21
373.312683
  0
LINE
  8
LC-003-002-----0
 62
     1
  6
CONTINUOUS
 10
111.192490
 20
362.681061
 11
98.433723
 21
362.681061
  0
LINE
  8
LC-003-002-----0
 62
     1
  6
CONTINUOUS
 10
111.018944
 20
364.348938
 11
98.433723
 21
364.348938
  0
LINE
  8
LC-004-006-----0
 62
     2
  6
DASHED
 10
98.433723
 20
364.348938
 11
62.433723
 21
364.348938
  0
LINE
  8
LC-003-002-----0
 62
     1
  6
CONTINUOUS
 10
62.433723
 20
364.348938
 11
49.156982
 21
364.348938
  0
LINE
  8
LC-004-006-----0
 62
     2
  6
DASHED
 10
98.433723
 20
362.681061
 11
62.433723
 21
362.681061
  0
LINE
  8
LC-003-002-----0
 62
     1
  6
CONTINUOUS
 10
62.433723
 20
362.681061
 11
49.418583
 21
362.681061
  0
CIRCLE
  8
LC-003-002-----0
 62
     1
  6
CONTINUOUS
 10
155.030212
 20
361.312683
 40
11.000000
  0
ARC
  8
LC-003-002-----0
 62
     1
  6
CONTINUOUS
 10
155.030212
 20
361.312683
 40
6.800000
 50
25.797618
 51
134.202385
  0
ARC
  8
LC-003-002-----0
 62
     1
  6
CONTINUOUS
 10
161.514084
 20
363.672638
 40
0.700000
 50
121.101440
 51
278.898566
  0
ARC
  8
LC-003-002-----0
 62
     1
  6
CONTINUOUS
 10
155.030212
 20
361.312683
 40
6.800000
 50
265.797614
 51
14.202383
  0
ARC
  8
LC-003-002-----0
 62
     1
  6
CONTINUOUS
 10
153.832031
 20
354.517517
 40
0.700000
 50
1.101437
 51
158.898559
  0
ARC
  8
LC-003-002-----0
 62
     1
  6
CONTINUOUS
 10
155.030212
 20
361.312683
 40
6.800000
 50
145.797614
 51
254.202385
  0
ARC
  8
LC-003-002-----0
 62
     1
  6
CONTINUOUS
 10
149.744492
 20
365.747925
 40
0.700000
 50
241.101433
 51
38.898563
  0
ENDSEC
  0
EOF
