  0
SECTION
  2
HEADER
  9
$LIMMIN
 10
-42.336784
 20
144.644684
  9
$LIMMAX
 10
133.435730
 20
201.290543
  9
$EXTMIN
 10
-42.336784
 20
144.644684
  9
$EXTMAX
 10
133.435730
 20
201.290543
  0
ENDSEC
  0
SECTION
  2
TABLES
  0
TABLE
  2
LTYPE
 70
     3
  0
LTYPE
  2
CONTINUOUS
 70
    64
  3
Ausgezogene Linie
 72
    65
 73
     0
 40
0.0
  0
LTYPE
  2
DASHED
 70
    64
  3
__ __ __ __ __ __ __ __ __ __ __ __ __ __ __
 72
    65
 73
     2
 40
0.75
 49
0.5
 49
-0.25
  0
LTYPE
  2
DASHDOT
 70
    64
  3
__ . __ . __ . __ . __ . __ . __ . __ . __ . __
 72
    65
 73
     4
 40
1.0
 49
0.5
 49
-0.25
 49
0.0
 49
-0.25
  0
ENDTAB
  0
TABLE
  2
LAYER
 70
     4
  0
LAYER
  2
LC-003-002-----0
 70
    64
 62
     7
  6
CONTINUOUS
  0
LAYER
  2
LC-005-002-RND-0
 70
    64
 62
     7
  6
CONTINUOUS
  0
LAYER
  2
LC-004-006-----0
 70
    64
 62
     7
  6
CONTINUOUS
  0
LAYER
  2
LC-006-012-----0
 70
    64
 62
     7
  6
CONTINUOUS
  0
ENDTAB
  0
TABLE
  2
STYLE
 70
     1
  0
STYLE
  2
TXT8
 70
    64
 40
0.0
 41
1.0
 50
0.0
 71
     0
 42
3.500000
  3
TXT8
  4

  0
ENDTAB
  0
ENDSEC
  0
SECTION
  2
BLOCKS
  0
ENDSEC
  0
SECTION
  2
ENTITIES
  0
LINE
  8
LC-005-002-RND-0
 62
     2
  6
DASHDOT
 10
-42.336784
 20
172.947006
 11
43.484707
 21
172.947006
  0
LINE
  8
LC-003-002-----0
 62
     1
  6
CONTINUOUS
 10
-29.900089
 20
188.947006
 11
-1.650091
 21
188.947006
  0
LINE
  8
LC-003-002-----0
 62
     1
  6
CONTINUOUS
 10
-29.900089
 20
156.947006
 11
-1.650091
 21
156.947006
  0
LINE
  8
LC-003-002-----0
 62
     1
  6
CONTINUOUS
 10
28.599911
 20
198.447006
 11
23.099911
 21
198.447006
  0
LINE
  8
LC-003-002-----0
 62
     1
  6
CONTINUOUS
 10
28.599911
 20
147.447006
 11
23.099911
 21
147.447006
  0
LINE
  8
LC-003-002-----0
 62
     1
  6
CONTINUOUS
 10
-30.650089
 20
188.197006
 11
-30.650089
 21
157.697006
  0
LINE
  8
LC-003-002-----0
 62
     1
  6
CONTINUOUS
 10
29.349911
 20
197.697006
 11
29.349911
 21
148.197006
  0
LINE
  8
LC-003-002-----0
 62
     1
  6
CONTINUOUS
 10
22.349911
 20
148.197006
 11
22.349911
 21
197.697006
  0
LINE
  8
LC-003-002-----0
 62
     1
  6
CONTINUOUS
 10
21.599911
 20
188.947006
 11
21.599911
 21
156.947006
  0
LINE
  8
LC-003-002-----0
 62
     1
  6
CONTINUOUS
 10
21.599911
 20
188.447006
 11
22.349911
 21
188.447006
  0
LINE
  8
LC-003-002-----0
 62
     1
  6
CONTINUOUS
 10
21.599911
 20
157.447006
 11
22.349911
 21
157.447006
  0
LINE
  8
LC-003-002-----0
 62
     1
  6
CONTINUOUS
 10
22.349911
 20
148.197006
 11
23.099911
 21
147.447006
  0
LINE
  8
LC-003-002-----0
 62
     1
  6
CONTINUOUS
 10
22.349911
 20
197.697006
 11
23.099911
 21
198.447006
  0
LINE
  8
LC-003-002-----0
 62
     1
  6
CONTINUOUS
 10
23.099911
 20
147.447006
 11
23.099911
 21
198.447006
  0
LINE
  8
LC-003-002-----0
 62
     1
  6
CONTINUOUS
 10
29.349911
 20
197.697006
 11
28.599911
 21
198.447006
  0
LINE
  8
LC-003-002-----0
 62
     1
  6
CONTINUOUS
 10
29.349911
 20
148.197006
 11
28.599911
 21
147.447006
  0
LINE
  8
LC-003-002-----0
 62
     1
  6
CONTINUOUS
 10
28.599911
 20
198.447006
 11
28.599911
 21
147.447006
  0
LINE
  8
LC-003-002-----0
 62
     1
  6
CONTINUOUS
 10
-41.136059
 20
182.046997
 11
-30.650089
 21
182.046997
  0
LINE
  8
LC-003-002-----0
 62
     1
  6
CONTINUOUS
 10
-41.192604
 20
163.847000
 11
-30.650087
 21
163.847000
  0
LINE
  8
LC-006-012-----0
 62
     2
  6
CONTINUOUS
 10
41.526146
 20
163.847000
 11
41.693680
 21
168.057709
  0
LINE
  8
LC-006-012-----0
 62
     2
  6
CONTINUOUS
 10
41.693680
 20
168.057709
 11
41.059322
 21
177.286728
  0
LINE
  8
LC-006-012-----0
 62
     2
  6
CONTINUOUS
 10
41.059322
 20
177.286728
 11
41.245136
 21
182.046997
  0
LINE
  8
LC-006-012-----0
 62
     2
  6
CONTINUOUS
 10
-41.192604
 20
163.847000
 11
-41.006840
 21
169.062637
  0
LINE
  8
LC-006-012-----0
 62
     2
  6
CONTINUOUS
 10
-41.006840
 20
169.062637
 11
-41.567291
 21
177.345840
  0
LINE
  8
LC-006-012-----0
 62
     2
  6
CONTINUOUS
 10
-41.567291
 20
177.345840
 11
-41.136059
 21
182.046997
  0
LINE
  8
LC-005-002-RND-0
 62
     2
  6
DASHDOT
 10
31.745756
 20
192.947006
 11
19.907293
 21
192.947006
  0
LINE
  8
LC-004-006-----0
 62
     2
  6
DASHED
 10
-30.650089
 20
182.046997
 11
29.349911
 21
182.046997
  0
LINE
  8
LC-003-002-----0
 62
     1
  6
CONTINUOUS
 10
29.349911
 20
182.046997
 11
41.245136
 21
182.046997
  0
LINE
  8
LC-004-006-----0
 62
     2
  6
DASHED
 10
-30.650089
 20
163.847000
 11
29.349911
 21
163.847000
  0
LINE
  8
LC-003-002-----0
 62
     1
  6
CONTINUOUS
 10
29.349911
 20
163.847000
 11
41.526146
 21
163.847000
  0
ARC
  8
LC-003-002-----0
 62
     1
  6
CONTINUOUS
 10
-29.900089
 20
188.197006
 40
0.750000
 50
90.000003
 51
180.000009
  0
ARC
  8
LC-003-002-----0
 62
     1
  6
CONTINUOUS
 10
-29.900089
 20
157.697006
 40
0.750000
 50
180.000009
 51
269.999997
  0
LINE
  8
LC-005-002-RND-0
 62
     2
  6
DASHDOT
 10
-0.650090
 20
155.947006
 11
-0.650090
 21
189.947006
  0
LINE
  8
LC-003-002-----0
 62
     1
  6
CONTINUOUS
 10
0.349910
 20
156.947006
 11
0.349910
 21
188.947006
  0
LINE
  8
LC-003-002-----0
 62
     1
  6
CONTINUOUS
 10
-1.650090
 20
156.947006
 11
-1.650090
 21
188.947006
  0
ARC
  8
LC-003-002-----0
 62
     1
  6
CONTINUOUS
 10
-0.650090
 20
188.947006
 40
1.000000
 50
180.000009
 51
0.000000
  0
ARC
  8
LC-003-002-----0
 62
     1
  6
CONTINUOUS
 10
-0.650090
 20
156.947006
 40
1.000000
 50
0.000000
 51
180.000009
  0
LINE
  8
LC-003-002-----0
 62
     1
  6
CONTINUOUS
 10
0.349910
 20
156.947006
 11
21.599911
 21
156.947006
  0
LINE
  8
LC-003-002-----0
 62
     1
  6
CONTINUOUS
 10
0.349910
 20
188.947006
 11
21.599911
 21
188.947006
  0
LINE
  8
LC-005-002-RND-0
 62
     2
  6
DASHDOT
 10
76.937721
 20
172.947006
 11
133.435730
 21
172.947006
  0
LINE
  8
LC-005-002-RND-0
 62
     2
  6
DASHDOT
 10
105.375610
 20
201.290543
 11
105.375610
 21
144.644684
  0
ARC
  8
LC-003-002-----0
 62
     1
  6
CONTINUOUS
 10
105.375610
 20
172.947006
 40
9.100000
 50
85.912230
 51
94.087768
  0
CIRCLE
  8
LC-003-002-----0
 62
     1
  6
CONTINUOUS
 10
105.375610
 20
172.947006
 40
16.000000
  0
CIRCLE
  8
LC-004-006-----0
 62
     2
  6
DASHED
 10
105.375610
 20
192.947006
 40
4.000000
  0
CIRCLE
  8
LC-005-002-RND-0
 62
     2
  6
DASHDOT
 10
105.375610
 20
172.947006
 40
20.000000
  0
CIRCLE
  8
LC-003-002-----0
 62
     1
  6
CONTINUOUS
 10
105.375610
 20
192.947006
 40
2.400000
  0
CIRCLE
  8
LC-003-002-----0
 62
     1
  6
CONTINUOUS
 10
105.375610
 20
172.947006
 40
24.750000
  0
CIRCLE
  8
LC-003-002-----0
 62
     1
  6
CONTINUOUS
 10
105.375610
 20
172.947006
 40
25.500000
  0
CIRCLE
  8
LC-004-006-----0
 62
     2
  6
DASHED
 10
85.375610
 20
172.947006
 40
4.000000
  0
CIRCLE
  8
LC-003-002-----0
 62
     1
  6
CONTINUOUS
 10
85.375610
 20
172.947006
 40
2.400000
  0
CIRCLE
  8
LC-004-006-----0
 62
     2
  6
DASHED
 10
105.375610
 20
152.947006
 40
4.000000
  0
CIRCLE
  8
LC-003-002-----0
 62
     1
  6
CONTINUOUS
 10
105.375610
 20
152.947006
 40
2.400000
  0
CIRCLE
  8
LC-003-002-----0
 62
     1
  6
CONTINUOUS
 10
125.375610
 20
172.947006
 40
2.400000
  0
CIRCLE
  8
LC-004-006-----0
 62
     2
  6
DASHED
 10
125.375610
 20
172.947006
 40
4.000000
  0
LINE
  8
LC-005-002-RND-0
 62
     2
  6
DASHDOT
 10
106.727638
 20
180.614731
 11
107.178055
 21
183.169174
  0
ARC
  8
LC-003-002-----0
 62
     1
  6
CONTINUOUS
 10
107.007904
 20
182.204193
 40
1.000000
 50
190.389737
 51
329.610258
  0
ARC
  8
LC-003-002-----0
 62
     1
  6
CONTINUOUS
 10
103.743317
 20
182.204193
 40
1.000000
 50
210.389747
 51
349.610257
  0
LINE
  8
LC-005-002-RND-0
 62
     2
  6
DASHDOT
 10
104.023582
 20
180.614731
 11
103.573166
 21
183.169174
  0
ARC
  8
LC-003-002-----0
 62
     1
  6
CONTINUOUS
 10
103.743317
 20
163.689804
 40
1.000000
 50
10.389743
 51
149.610253
  0
LINE
  8
LC-005-002-RND-0
 62
     2
  6
DASHDOT
 10
104.023582
 20
165.279282
 11
103.573166
 21
162.724823
  0
LINE
  8
LC-005-002-RND-0
 62
     2
  6
DASHDOT
 10
106.727638
 20
165.279282
 11
107.178055
 21
162.724823
  0
ARC
  8
LC-003-002-----0
 62
     1
  6
CONTINUOUS
 10
107.007904
 20
163.689804
 40
1.000000
 50
30.389742
 51
169.610263
  0
ARC
  8
LC-003-002-----0
 62
     1
  6
CONTINUOUS
 10
105.375610
 20
172.947006
 40
9.100000
 50
105.912233
 51
254.087767
  0
ARC
  8
LC-003-002-----0
 62
     1
  6
CONTINUOUS
 10
105.375610
 20
172.947006
 40
9.100000
 50
285.912228
 51
74.087772
  0
ARC
  8
LC-003-002-----0
 62
     1
  6
CONTINUOUS
 10
105.375610
 20
172.947006
 40
9.100000
 50
265.912232
 51
274.087770
  0
LINE
  8
LC-003-002-----0
 62
     1
  6
CONTINUOUS
 10
41.231525
 20
181.698318
 11
29.349911
 21
181.698318
  0
ARC
  8
LC-003-002-----0
 62
     1
  6
CONTINUOUS
 10
105.375610
 20
172.947006
 40
9.500000
 50
103.587585
 51
256.412415
  0
ARC
  8
LC-003-002-----0
 62
     1
  6
CONTINUOUS
 10
103.743317
 20
163.689804
 40
0.600000
 50
342.204470
 51
177.795534
  0
ARC
  8
LC-003-002-----0
 62
     1
  6
CONTINUOUS
 10
105.375610
 20
172.947006
 40
9.500000
 50
263.587584
 51
276.412418
  0
ARC
  8
LC-003-002-----0
 62
     1
  6
CONTINUOUS
 10
107.007904
 20
163.689804
 40
0.600000
 50
2.204469
 51
197.795534
  0
ARC
  8
LC-003-002-----0
 62
     1
  6
CONTINUOUS
 10
105.375610
 20
172.947006
 40
9.500000
 50
283.587580
 51
76.412420
  0
ARC
  8
LC-003-002-----0
 62
     1
  6
CONTINUOUS
 10
107.007904
 20
182.204193
 40
0.600000
 50
162.204466
 51
357.795531
  0
ARC
  8
LC-003-002-----0
 62
     1
  6
CONTINUOUS
 10
105.375610
 20
172.947006
 40
9.500000
 50
83.587582
 51
96.412416
  0
ARC
  8
LC-003-002-----0
 62
     1
  6
CONTINUOUS
 10
103.743317
 20
182.204193
 40
0.600000
 50
182.204466
 51
17.795530
  0
LINE
  8
LC-004-006-----0
 62
     2
  6
DASHED
 10
29.349911
 20
181.698318
 11
-30.650089
 21
181.698318
  0
LINE
  8
LC-003-002-----0
 62
     1
  6
CONTINUOUS
 10
-30.650089
 20
181.698318
 11
-41.168045
 21
181.698318
  0
LINE
  8
LC-004-006-----0
 62
     2
  6
DASHED
 10
29.349911
 20
164.195694
 11
-30.650089
 21
164.195694
  0
LINE
  8
LC-003-002-----0
 62
     1
  6
CONTINUOUS
 10
-30.650089
 20
164.195694
 11
-41.180183
 21
164.195694
  0
LINE
  8
LC-003-002-----0
 62
     1
  6
CONTINUOUS
 10
41.540020
 20
164.195694
 11
29.349911
 21
164.195694
  0
LINE
  8
LC-004-006-----0
 62
     2
  6
DASHED
 10
29.349911
 20
196.947006
 11
24.849911
 21
196.947006
  0
LINE
  8
LC-004-006-----0
 62
     2
  6
DASHED
 10
24.849911
 20
196.947006
 11
24.849911
 21
188.947006
  0
LINE
  8
LC-004-006-----0
 62
     2
  6
DASHED
 10
24.849911
 20
195.347000
 11
22.349911
 21
195.347000
  0
LINE
  8
LC-004-006-----0
 62
     2
  6
DASHED
 10
29.349911
 20
188.947006
 11
24.849911
 21
188.947006
  0
LINE
  8
LC-004-006-----0
 62
     2
  6
DASHED
 10
24.849911
 20
190.546997
 11
22.349911
 21
190.546997
  0
LINE
  8
LC-005-002-RND-0
 62
     2
  6
DASHDOT
 10
31.745756
 20
152.947006
 11
19.907293
 21
152.947006
  0
LINE
  8
LC-004-006-----0
 62
     2
  6
DASHED
 10
29.349911
 20
148.947006
 11
24.849911
 21
148.947006
  0
LINE
  8
LC-004-006-----0
 62
     2
  6
DASHED
 10
24.849911
 20
148.947006
 11
24.849911
 21
156.947006
  0
LINE
  8
LC-004-006-----0
 62
     2
  6
DASHED
 10
24.849911
 20
150.546997
 11
22.349911
 21
150.546997
  0
LINE
  8
LC-004-006-----0
 62
     2
  6
DASHED
 10
29.349911
 20
156.947006
 11
24.849911
 21
156.947006
  0
LINE
  8
LC-004-006-----0
 62
     2
  6
DASHED
 10
24.849911
 20
155.347000
 11
22.349911
 21
155.347000
  0
LINE
  8
LC-004-006-----0
 62
     2
  6
DASHED
 10
24.849911
 20
176.947006
 11
24.849911
 21
168.947006
  0
LINE
  8
LC-004-006-----0
 62
     2
  6
DASHED
 10
29.349911
 20
168.947006
 11
24.849911
 21
168.947006
  0
LINE
  8
LC-004-006-----0
 62
     2
  6
DASHED
 10
24.849911
 20
170.546997
 11
22.349911
 21
170.546997
  0
LINE
  8
LC-004-006-----0
 62
     2
  6
DASHED
 10
29.349911
 20
176.947006
 11
24.849911
 21
176.947006
  0
LINE
  8
LC-004-006-----0
 62
     2
  6
DASHED
 10
24.849911
 20
175.347000
 11
22.349911
 21
175.347000
  0
CIRCLE
  8
LC-003-002-----0
 62
     1
  6
CONTINUOUS
 10
-0.650090
 20
172.947006
 40
1.000000
  0
ENDSEC
  0
EOF
