  0
SECTION
  2
HEADER
  9
$LIMMIN
 10
-43.025883
 20
266.675720
  9
$LIMMAX
 10
116.614624
 20
321.710968
  9
$EXTMIN
 10
-43.025883
 20
266.675720
  9
$EXTMAX
 10
116.614624
 20
321.710968
  0
ENDSEC
  0
SECTION
  2
TABLES
  0
TABLE
  2
LTYPE
 70
     3
  0
LTYPE
  2
CONTINUOUS
 70
    64
  3
Ausgezogene Linie
 72
    65
 73
     0
 40
0.0
  0
LTYPE
  2
DASHED
 70
    64
  3
__ __ __ __ __ __ __ __ __ __ __ __ __ __ __
 72
    65
 73
     2
 40
0.75
 49
0.5
 49
-0.25
  0
LTYPE
  2
DASHDOT
 70
    64
  3
__ . __ . __ . __ . __ . __ . __ . __ . __ . __
 72
    65
 73
     4
 40
1.0
 49
0.5
 49
-0.25
 49
0.0
 49
-0.25
  0
ENDTAB
  0
TABLE
  2
LAYER
 70
     4
  0
LAYER
  2
LC-003-002-----0
 70
    64
 62
     7
  6
CONTINUOUS
  0
LAYER
  2
LC-005-002-RND-0
 70
    64
 62
     7
  6
CONTINUOUS
  0
LAYER
  2
LC-004-006-----0
 70
    64
 62
     7
  6
CONTINUOUS
  0
LAYER
  2
LC-006-012-----0
 70
    64
 62
     7
  6
CONTINUOUS
  0
ENDTAB
  0
TABLE
  2
STYLE
 70
     1
  0
STYLE
  2
TXT8
 70
    64
 40
0.0
 41
1.0
 50
0.0
 71
     0
 42
3.500000
  3
TXT8
  4

  0
ENDTAB
  0
ENDSEC
  0
SECTION
  2
BLOCKS
  0
ENDSEC
  0
SECTION
  2
ENTITIES
  0
LINE
  8
LC-005-002-RND-0
 62
     2
  6
DASHDOT
 10
-43.025883
 20
294.075867
 11
33.924484
 21
294.075867
  0
LINE
  8
LC-003-002-----0
 62
     1
  6
CONTINUOUS
 10
-29.900089
 20
309.575867
 11
-6.650091
 21
309.575867
  0
LINE
  8
LC-003-002-----0
 62
     1
  6
CONTINUOUS
 10
-29.900089
 20
278.575867
 11
-6.650091
 21
278.575867
  0
LINE
  8
LC-003-002-----0
 62
     1
  6
CONTINUOUS
 10
18.599911
 20
319.075867
 11
14.099909
 21
319.075867
  0
LINE
  8
LC-003-002-----0
 62
     1
  6
CONTINUOUS
 10
18.599911
 20
269.075867
 11
14.099909
 21
269.075867
  0
LINE
  8
LC-003-002-----0
 62
     1
  6
CONTINUOUS
 10
-30.650089
 20
308.825867
 11
-30.650089
 21
279.325867
  0
LINE
  8
LC-003-002-----0
 62
     1
  6
CONTINUOUS
 10
19.349911
 20
318.325867
 11
19.349911
 21
269.825867
  0
LINE
  8
LC-003-002-----0
 62
     1
  6
CONTINUOUS
 10
13.349910
 20
318.325867
 11
13.349910
 21
269.825867
  0
ARC
  8
LC-003-002-----0
 62
     1
  6
CONTINUOUS
 10
-29.900089
 20
308.825867
 40
0.750000
 50
90.000003
 51
180.000009
  0
ARC
  8
LC-003-002-----0
 62
     1
  6
CONTINUOUS
 10
-29.900089
 20
279.325867
 40
0.750000
 50
180.000009
 51
269.999997
  0
LINE
  8
LC-003-002-----0
 62
     1
  6
CONTINUOUS
 10
12.599910
 20
309.575867
 11
12.599910
 21
278.575867
  0
LINE
  8
LC-003-002-----0
 62
     1
  6
CONTINUOUS
 10
12.599910
 20
309.075867
 11
13.349910
 21
309.075867
  0
LINE
  8
LC-003-002-----0
 62
     1
  6
CONTINUOUS
 10
12.599910
 20
279.075867
 11
13.349910
 21
279.075867
  0
LINE
  8
LC-003-002-----0
 62
     1
  6
CONTINUOUS
 10
14.099910
 20
269.075867
 11
13.349910
 21
269.825867
  0
LINE
  8
LC-003-002-----0
 62
     1
  6
CONTINUOUS
 10
14.099910
 20
319.075867
 11
13.349910
 21
318.325867
  0
LINE
  8
LC-003-002-----0
 62
     1
  6
CONTINUOUS
 10
14.099910
 20
269.075867
 11
14.099910
 21
319.075867
  0
LINE
  8
LC-003-002-----0
 62
     1
  6
CONTINUOUS
 10
19.349911
 20
318.325867
 11
18.599911
 21
319.075867
  0
LINE
  8
LC-003-002-----0
 62
     1
  6
CONTINUOUS
 10
19.349911
 20
269.825867
 11
18.599911
 21
269.075867
  0
LINE
  8
LC-003-002-----0
 62
     1
  6
CONTINUOUS
 10
18.599911
 20
319.075867
 11
18.599911
 21
269.075867
  0
LINE
  8
LC-003-002-----0
 62
     1
  6
CONTINUOUS
 10
-40.740314
 20
302.075867
 11
-30.650089
 21
302.075867
  0
ARC
  8
LC-003-002-----0
 62
     1
  6
CONTINUOUS
 10
-5.650090
 20
309.575867
 40
1.000000
 50
180.000009
 51
0.000000
  0
ARC
  8
LC-003-002-----0
 62
     1
  6
CONTINUOUS
 10
-5.650090
 20
278.575867
 40
1.000000
 50
0.000000
 51
180.000009
  0
LINE
  8
LC-003-002-----0
 62
     1
  6
CONTINUOUS
 10
-4.650090
 20
309.575867
 11
-4.650090
 21
278.575867
  0
LINE
  8
LC-003-002-----0
 62
     1
  6
CONTINUOUS
 10
-6.650090
 20
309.575867
 11
-6.650090
 21
278.575867
  0
LINE
  8
LC-005-002-RND-0
 62
     2
  6
DASHDOT
 10
-5.650090
 20
311.393799
 11
-5.650090
 21
276.511108
  0
LINE
  8
LC-003-002-----0
 62
     1
  6
CONTINUOUS
 10
-4.650090
 20
309.575867
 11
12.599910
 21
309.575867
  0
LINE
  8
LC-003-002-----0
 62
     1
  6
CONTINUOUS
 10
-4.650090
 20
278.575867
 11
12.599910
 21
278.575867
  0
LINE
  8
LC-003-002-----0
 62
     1
  6
CONTINUOUS
 10
-41.457954
 20
286.075867
 11
-30.650087
 21
286.075867
  0
LINE
  8
LC-006-012-----0
 62
     2
  6
CONTINUOUS
 10
-41.457954
 20
286.075867
 11
-40.896355
 21
290.641815
  0
LINE
  8
LC-006-012-----0
 62
     2
  6
CONTINUOUS
 10
-40.896355
 20
290.641815
 11
-41.085388
 21
297.486389
  0
LINE
  8
LC-006-012-----0
 62
     2
  6
CONTINUOUS
 10
-41.085388
 20
297.486389
 11
-40.740314
 21
302.075867
  0
LINE
  8
LC-006-012-----0
 62
     2
  6
CONTINUOUS
 10
31.748323
 20
286.075867
 11
31.946907
 21
290.429565
  0
LINE
  8
LC-006-012-----0
 62
     2
  6
CONTINUOUS
 10
31.946907
 20
290.429565
 11
31.198044
 21
298.184235
  0
LINE
  8
LC-006-012-----0
 62
     2
  6
CONTINUOUS
 10
31.198044
 20
298.184235
 11
31.082306
 21
302.075867
  0
LINE
  8
LC-004-006-----0
 62
     2
  6
DASHED
 10
-30.650089
 20
302.075867
 11
19.349911
 21
302.075867
  0
LINE
  8
LC-003-002-----0
 62
     1
  6
CONTINUOUS
 10
19.349911
 20
302.075867
 11
31.082306
 21
302.075867
  0
LINE
  8
LC-004-006-----0
 62
     2
  6
DASHED
 10
-30.650089
 20
286.075867
 11
19.349911
 21
286.075867
  0
LINE
  8
LC-003-002-----0
 62
     1
  6
CONTINUOUS
 10
19.349911
 20
286.075867
 11
31.748323
 21
286.075867
  0
LINE
  8
LC-005-002-RND-0
 62
     2
  6
DASHDOT
 10
58.939785
 20
294.075867
 11
116.614624
 21
294.075867
  0
LINE
  8
LC-005-002-RND-0
 62
     2
  6
DASHDOT
 10
87.458351
 20
321.710968
 11
87.458351
 21
266.675720
  0
ARC
  8
LC-003-002-----0
 62
     1
  6
CONTINUOUS
 10
87.458351
 20
294.075867
 40
8.000000
 50
276.711314
 51
23.288684
  0
CIRCLE
  8
LC-003-002-----0
 62
     1
  6
CONTINUOUS
 10
87.458351
 20
294.075867
 40
15.500000
  0
CIRCLE
  8
LC-003-002-----0
 62
     1
  6
CONTINUOUS
 10
87.458351
 20
294.075867
 40
25.000000
  0
CIRCLE
  8
LC-005-002-RND-0
 62
     2
  6
DASHDOT
 10
87.458351
 20
294.075867
 40
19.500000
  0
CIRCLE
  8
LC-004-006-----0
 62
     2
  6
DASHED
 10
87.458351
 20
313.575867
 40
4.000000
  0
CIRCLE
  8
LC-003-002-----0
 62
     1
  6
CONTINUOUS
 10
87.458351
 20
313.575867
 40
2.400000
  0
CIRCLE
  8
LC-004-006-----0
 62
     2
  6
DASHED
 10
67.958351
 20
294.075867
 40
4.000000
  0
CIRCLE
  8
LC-003-002-----0
 62
     1
  6
CONTINUOUS
 10
87.458351
 20
294.075867
 40
24.250000
  0
CIRCLE
  8
LC-003-002-----0
 62
     1
  6
CONTINUOUS
 10
67.958351
 20
294.075867
 40
2.400000
  0
CIRCLE
  8
LC-004-006-----0
 62
     2
  6
DASHED
 10
87.458351
 20
274.575867
 40
4.000000
  0
CIRCLE
  8
LC-003-002-----0
 62
     1
  6
CONTINUOUS
 10
87.458351
 20
274.575867
 40
2.400000
  0
CIRCLE
  8
LC-004-006-----0
 62
     2
  6
DASHED
 10
106.958351
 20
294.075867
 40
4.000000
  0
CIRCLE
  8
LC-003-002-----0
 62
     1
  6
CONTINUOUS
 10
106.958351
 20
294.075867
 40
2.400000
  0
LINE
  8
LC-004-006-----0
 62
     2
  6
DASHED
 10
19.349911
 20
317.575867
 11
14.849909
 21
317.575867
  0
LINE
  8
LC-004-006-----0
 62
     2
  6
DASHED
 10
14.849910
 20
315.975861
 11
13.349910
 21
315.975861
  0
LINE
  8
LC-005-002-RND-0
 62
     2
  6
DASHDOT
 10
21.317404
 20
313.575867
 11
11.815206
 21
313.575867
  0
LINE
  8
LC-004-006-----0
 62
     2
  6
DASHED
 10
14.849910
 20
317.575867
 11
14.849910
 21
309.575867
  0
LINE
  8
LC-004-006-----0
 62
     2
  6
DASHED
 10
14.849910
 20
311.175873
 11
13.349910
 21
311.175873
  0
LINE
  8
LC-004-006-----0
 62
     2
  6
DASHED
 10
19.349911
 20
309.575867
 11
14.849909
 21
309.575867
  0
LINE
  8
LC-004-006-----0
 62
     2
  6
DASHED
 10
19.349911
 20
270.575867
 11
14.849909
 21
270.575867
  0
LINE
  8
LC-005-002-RND-0
 62
     2
  6
DASHDOT
 10
21.317404
 20
274.575867
 11
11.815206
 21
274.575867
  0
LINE
  8
LC-004-006-----0
 62
     2
  6
DASHED
 10
19.349911
 20
278.575867
 11
14.849909
 21
278.575867
  0
LINE
  8
LC-004-006-----0
 62
     2
  6
DASHED
 10
14.849910
 20
272.175873
 11
13.349910
 21
272.175873
  0
LINE
  8
LC-004-006-----0
 62
     2
  6
DASHED
 10
14.849910
 20
276.975861
 11
13.349910
 21
276.975861
  0
LINE
  8
LC-004-006-----0
 62
     2
  6
DASHED
 10
14.849910
 20
270.575867
 11
14.849910
 21
278.575867
  0
LINE
  8
LC-004-006-----0
 62
     2
  6
DASHED
 10
14.849910
 20
298.075867
 11
14.849910
 21
290.075867
  0
LINE
  8
LC-004-006-----0
 62
     2
  6
DASHED
 10
14.849910
 20
291.675873
 11
13.349910
 21
291.675873
  0
LINE
  8
LC-004-006-----0
 62
     2
  6
DASHED
 10
19.349911
 20
290.075867
 11
14.849909
 21
290.075867
  0
LINE
  8
LC-004-006-----0
 62
     2
  6
DASHED
 10
19.349911
 20
298.075867
 11
14.849909
 21
298.075867
  0
LINE
  8
LC-004-006-----0
 62
     2
  6
DASHED
 10
14.849910
 20
296.475861
 11
13.349910
 21
296.475861
  0
ARC
  8
LC-003-002-----0
 62
     1
  6
CONTINUOUS
 10
87.458351
 20
285.775848
 40
1.000000
 50
20.782369
 51
159.217624
  0
ARC
  8
LC-003-002-----0
 62
     1
  6
CONTINUOUS
 10
94.646362
 20
298.225861
 40
1.000000
 50
140.782370
 51
279.217631
  0
ARC
  8
LC-003-002-----0
 62
     1
  6
CONTINUOUS
 10
80.270340
 20
298.225861
 40
1.000000
 50
260.782370
 51
39.217631
  0
ARC
  8
LC-003-002-----0
 62
     1
  6
CONTINUOUS
 10
87.458351
 20
294.075867
 40
8.000000
 50
156.711314
 51
263.288688
  0
ARC
  8
LC-003-002-----0
 62
     1
  6
CONTINUOUS
 10
87.458351
 20
294.075867
 40
8.000000
 50
36.711314
 51
143.288681
  0
LINE
  8
LC-005-002-RND-0
 62
     2
  6
DASHDOT
 10
93.207146
 20
297.394928
 11
95.065361
 21
298.467773
  0
LINE
  8
LC-005-002-RND-0
 62
     2
  6
DASHDOT
 10
81.709557
 20
297.394928
 11
79.851341
 21
298.467773
  0
ARC
  8
LC-003-002-----0
 62
     1
  6
CONTINUOUS
 10
87.458351
 20
294.075867
 40
8.400000
 50
154.060395
 51
265.939600
  0
ARC
  8
LC-003-002-----0
 62
     1
  6
CONTINUOUS
 10
87.458351
 20
285.775848
 40
0.600000
 50
352.442211
 51
187.557791
  0
ARC
  8
LC-003-002-----0
 62
     1
  6
CONTINUOUS
 10
87.458351
 20
294.075867
 40
8.400000
 50
274.060402
 51
25.939600
  0
ARC
  8
LC-003-002-----0
 62
     1
  6
CONTINUOUS
 10
94.646362
 20
298.225861
 40
0.600000
 50
112.442208
 51
307.557790
  0
ARC
  8
LC-003-002-----0
 62
     1
  6
CONTINUOUS
 10
87.458351
 20
294.075867
 40
8.400000
 50
34.060401
 51
145.939600
  0
ARC
  8
LC-003-002-----0
 62
     1
  6
CONTINUOUS
 10
80.270340
 20
298.225861
 40
0.600000
 50
232.442215
 51
67.557790
  0
LINE
  8
LC-003-002-----0
 62
     1
  6
CONTINUOUS
 10
31.290592
 20
297.225861
 11
19.349911
 21
297.225861
  0
LINE
  8
LC-003-002-----0
 62
     1
  6
CONTINUOUS
 10
31.132965
 20
298.858124
 11
19.349911
 21
298.858124
  0
LINE
  8
LC-004-006-----0
 62
     2
  6
DASHED
 10
19.349911
 20
298.858124
 11
-30.650089
 21
298.858124
  0
LINE
  8
LC-003-002-----0
 62
     1
  6
CONTINUOUS
 10
-30.650089
 20
298.858124
 11
-40.982250
 21
298.858124
  0
LINE
  8
LC-004-006-----0
 62
     2
  6
DASHED
 10
19.349911
 20
297.225861
 11
-30.650089
 21
297.225861
  0
LINE
  8
LC-003-002-----0
 62
     1
  6
CONTINUOUS
 10
-30.650089
 20
297.225861
 11
-41.104977
 21
297.225861
  0
CIRCLE
  8
LC-003-002-----0
 62
     1
  6
CONTINUOUS
 10
-5.650090
 20
294.075867
 40
1.000000
  0
ENDSEC
  0
EOF
