  0
SECTION
  2
HEADER
  9
$LIMMIN
 10
-47.743053
 20
393.558502
  9
$LIMMAX
 10
91.107758
 20
441.549194
  9
$EXTMIN
 10
-47.743053
 20
393.558502
  9
$EXTMAX
 10
91.107758
 20
441.549194
  0
ENDSEC
  0
SECTION
  2
TABLES
  0
TABLE
  2
LTYPE
 70
     3
  0
LTYPE
  2
CONTINUOUS
 70
    64
  3
Ausgezogene Linie
 72
    65
 73
     0
 40
0.0
  0
LTYPE
  2
DASHED
 70
    64
  3
__ __ __ __ __ __ __ __ __ __ __ __ __ __ __
 72
    65
 73
     2
 40
0.75
 49
0.5
 49
-0.25
  0
LTYPE
  2
DASHDOT
 70
    64
  3
__ . __ . __ . __ . __ . __ . __ . __ . __ . __
 72
    65
 73
     4
 40
1.0
 49
0.5
 49
-0.25
 49
0.0
 49
-0.25
  0
ENDTAB
  0
TABLE
  2
LAYER
 70
     4
  0
LAYER
  2
LC-003-002-----0
 70
    64
 62
     7
  6
CONTINUOUS
  0
LAYER
  2
LC-005-002-RND-0
 70
    64
 62
     7
  6
CONTINUOUS
  0
LAYER
  2
LC-004-006-----0
 70
    64
 62
     7
  6
CONTINUOUS
  0
LAYER
  2
LC-006-012-----0
 70
    64
 62
     7
  6
CONTINUOUS
  0
ENDTAB
  0
TABLE
  2
STYLE
 70
     1
  0
STYLE
  2
TXT8
 70
    64
 40
0.0
 41
1.0
 50
0.0
 71
     0
 42
3.500000
  3
TXT8
  4

  0
ENDTAB
  0
ENDSEC
  0
SECTION
  2
BLOCKS
  0
ENDSEC
  0
SECTION
  2
ENTITIES
  0
LINE
  8
LC-005-002-RND-0
 62
     2
  6
DASHDOT
 10
-47.743053
 20
417.194550
 11
20.668995
 21
417.194550
  0
LINE
  8
LC-003-002-----0
 62
     1
  6
CONTINUOUS
 10
-30.150089
 20
429.194550
 11
-13.400091
 21
429.194550
  0
LINE
  8
LC-003-002-----0
 62
     1
  6
CONTINUOUS
 10
-30.150089
 20
405.194550
 11
-13.400091
 21
405.194550
  0
LINE
  8
LC-003-002-----0
 62
     1
  6
CONTINUOUS
 10
-0.150090
 20
438.694550
 11
4.849910
 21
438.694550
  0
LINE
  8
LC-003-002-----0
 62
     1
  6
CONTINUOUS
 10
4.849910
 20
395.694550
 11
-0.150090
 21
395.694550
  0
LINE
  8
LC-003-002-----0
 62
     1
  6
CONTINUOUS
 10
-30.650089
 20
405.694550
 11
-30.650089
 21
428.694550
  0
LINE
  8
LC-003-002-----0
 62
     1
  6
CONTINUOUS
 10
5.349910
 20
438.194550
 11
5.349910
 21
396.194550
  0
LINE
  8
LC-003-002-----0
 62
     1
  6
CONTINUOUS
 10
-0.650090
 20
438.194550
 11
-0.650090
 21
396.194550
  0
ARC
  8
LC-003-002-----0
 62
     1
  6
CONTINUOUS
 10
-30.150089
 20
428.694550
 40
0.500000
 50
90.000003
 51
180.000009
  0
ARC
  8
LC-003-002-----0
 62
     1
  6
CONTINUOUS
 10
-30.150089
 20
405.694550
 40
0.500000
 50
180.000009
 51
269.999997
  0
LINE
  8
LC-003-002-----0
 62
     1
  6
CONTINUOUS
 10
-1.150090
 20
405.194550
 11
-1.150090
 21
429.194550
  0
LINE
  8
LC-003-002-----0
 62
     1
  6
CONTINUOUS
 10
-1.150090
 20
405.694550
 11
-0.650090
 21
405.694550
  0
LINE
  8
LC-003-002-----0
 62
     1
  6
CONTINUOUS
 10
-1.150090
 20
428.694550
 11
-0.650090
 21
428.694550
  0
LINE
  8
LC-003-002-----0
 62
     1
  6
CONTINUOUS
 10
-0.150090
 20
395.694550
 11
-0.650090
 21
396.194550
  0
LINE
  8
LC-003-002-----0
 62
     1
  6
CONTINUOUS
 10
-0.150090
 20
438.694550
 11
-0.650090
 21
438.194550
  0
LINE
  8
LC-003-002-----0
 62
     1
  6
CONTINUOUS
 10
-0.150090
 20
395.694550
 11
-0.150090
 21
438.694550
  0
LINE
  8
LC-003-002-----0
 62
     1
  6
CONTINUOUS
 10
4.849910
 20
438.694550
 11
5.349910
 21
438.194550
  0
LINE
  8
LC-003-002-----0
 62
     1
  6
CONTINUOUS
 10
5.349910
 20
396.194550
 11
4.849910
 21
395.694550
  0
LINE
  8
LC-003-002-----0
 62
     1
  6
CONTINUOUS
 10
4.849910
 20
438.694550
 11
4.849910
 21
395.694550
  0
LINE
  8
LC-003-002-----0
 62
     1
  6
CONTINUOUS
 10
-42.679775
 20
423.694550
 11
-30.650089
 21
423.694550
  0
LINE
  8
LC-003-002-----0
 62
     1
  6
CONTINUOUS
 10
-43.021809
 20
410.694550
 11
-30.650089
 21
410.694550
  0
LINE
  8
LC-006-012-----0
 62
     2
  6
CONTINUOUS
 10
-43.021809
 20
410.694550
 11
-43.299606
 21
413.509796
  0
LINE
  8
LC-006-012-----0
 62
     2
  6
CONTINUOUS
 10
-43.299606
 20
413.509796
 11
-42.574783
 21
420.771454
  0
LINE
  8
LC-006-012-----0
 62
     2
  6
CONTINUOUS
 10
-42.574783
 20
420.771454
 11
-42.679775
 21
423.694550
  0
LINE
  8
LC-006-012-----0
 62
     2
  6
CONTINUOUS
 10
16.619661
 20
410.694550
 11
16.903402
 21
413.450348
  0
LINE
  8
LC-006-012-----0
 62
     2
  6
CONTINUOUS
 10
16.903402
 20
413.450348
 11
16.742331
 21
419.879547
  0
LINE
  8
LC-006-012-----0
 62
     2
  6
CONTINUOUS
 10
16.742331
 20
419.879547
 11
16.950930
 21
423.694550
  0
LINE
  8
LC-004-006-----0
 62
     2
  6
DASHED
 10
-30.650089
 20
423.694550
 11
5.349909
 21
423.694550
  0
LINE
  8
LC-003-002-----0
 62
     1
  6
CONTINUOUS
 10
5.349910
 20
423.694550
 11
16.950930
 21
423.694550
  0
LINE
  8
LC-004-006-----0
 62
     2
  6
DASHED
 10
-30.650089
 20
410.694550
 11
5.349909
 21
410.694550
  0
LINE
  8
LC-003-002-----0
 62
     1
  6
CONTINUOUS
 10
5.349910
 20
410.694550
 11
16.619661
 21
410.694550
  0
LINE
  8
LC-005-002-RND-0
 62
     2
  6
DASHDOT
 10
-12.650090
 20
430.446136
 11
-12.650090
 21
403.564392
  0
LINE
  8
LC-003-002-----0
 62
     1
  6
CONTINUOUS
 10
-11.900090
 20
429.194550
 11
-11.900090
 21
405.194550
  0
LINE
  8
LC-003-002-----0
 62
     1
  6
CONTINUOUS
 10
-13.400090
 20
429.194550
 11
-13.400090
 21
405.194550
  0
ARC
  8
LC-003-002-----0
 62
     1
  6
CONTINUOUS
 10
-12.650090
 20
405.194550
 40
0.750000
 50
0.000000
 51
180.000009
  0
ARC
  8
LC-003-002-----0
 62
     1
  6
CONTINUOUS
 10
-12.650090
 20
429.194550
 40
0.750000
 50
180.000009
 51
0.000000
  0
LINE
  8
LC-003-002-----0
 62
     1
  6
CONTINUOUS
 10
-11.900090
 20
429.194550
 11
-1.150090
 21
429.194550
  0
LINE
  8
LC-003-002-----0
 62
     1
  6
CONTINUOUS
 10
-11.900090
 20
405.194550
 11
-1.150090
 21
405.194550
  0
LINE
  8
LC-005-002-RND-0
 62
     2
  6
DASHDOT
 10
42.169132
 20
417.194550
 11
91.107758
 21
417.194550
  0
LINE
  8
LC-005-002-RND-0
 62
     2
  6
DASHDOT
 10
66.328888
 20
441.549194
 11
66.328888
 21
393.558502
  0
CIRCLE
  8
LC-003-002-----0
 62
     1
  6
CONTINUOUS
 10
66.328888
 20
417.194550
 40
21.500000
  0
CIRCLE
  8
LC-003-002-----0
 62
     1
  6
CONTINUOUS
 10
66.328888
 20
417.194550
 40
12.000000
  0
ARC
  8
LC-003-002-----0
 62
     1
  6
CONTINUOUS
 10
66.328888
 20
417.194550
 40
6.500000
 50
276.278977
 51
23.721022
  0
CIRCLE
  8
LC-003-002-----0
 62
     1
  6
CONTINUOUS
 10
66.328888
 20
417.194550
 40
21.000000
  0
CIRCLE
  8
LC-005-002-RND-0
 62
     2
  6
DASHDOT
 10
66.328888
 20
417.194550
 40
16.000000
  0
CIRCLE
  8
LC-004-006-----0
 62
     2
  6
DASHED
 10
66.328888
 20
433.194550
 40
4.000000
  0
CIRCLE
  8
LC-003-002-----0
 62
     1
  6
CONTINUOUS
 10
66.328888
 20
433.194550
 40
2.400000
  0
CIRCLE
  8
LC-004-006-----0
 62
     2
  6
DASHED
 10
50.328888
 20
417.194550
 40
4.000000
  0
CIRCLE
  8
LC-003-002-----0
 62
     1
  6
CONTINUOUS
 10
50.328888
 20
417.194550
 40
2.400000
  0
CIRCLE
  8
LC-004-006-----0
 62
     2
  6
DASHED
 10
66.328888
 20
401.194550
 40
4.000000
  0
CIRCLE
  8
LC-003-002-----0
 62
     1
  6
CONTINUOUS
 10
66.328888
 20
401.194550
 40
2.400000
  0
CIRCLE
  8
LC-003-002-----0
 62
     1
  6
CONTINUOUS
 10
82.328888
 20
417.194550
 40
2.400000
  0
CIRCLE
  8
LC-004-006-----0
 62
     2
  6
DASHED
 10
82.328888
 20
417.194550
 40
4.000000
  0
ARC
  8
LC-003-002-----0
 62
     1
  6
CONTINUOUS
 10
66.328888
 20
410.494537
 40
0.750000
 50
18.581707
 51
161.418298
  0
ARC
  8
LC-003-002-----0
 62
     1
  6
CONTINUOUS
 10
72.131256
 20
420.544525
 40
0.750000
 50
138.581711
 51
281.418291
  0
ARC
  8
LC-003-002-----0
 62
     1
  6
CONTINUOUS
 10
60.526516
 20
420.544525
 40
0.750000
 50
258.581711
 51
41.418291
  0
LINE
  8
LC-005-002-RND-0
 62
     2
  6
DASHDOT
 10
70.810173
 20
419.781799
 11
72.836906
 21
420.951935
  0
ARC
  8
LC-003-002-----0
 62
     1
  6
CONTINUOUS
 10
66.328888
 20
417.194550
 40
6.500000
 50
36.278980
 51
143.721018
  0
ARC
  8
LC-003-002-----0
 62
     1
  6
CONTINUOUS
 10
66.328888
 20
417.194550
 40
6.500000
 50
156.278977
 51
263.721018
  0
LINE
  8
LC-005-002-RND-0
 62
     2
  6
DASHDOT
 10
61.847599
 20
419.781799
 11
59.820866
 21
420.951935
  0
LINE
  8
LC-005-002-RND-0
 62
     2
  6
DASHDOT
 10
7.908364
 20
433.194550
 11
-3.519711
 21
433.194550
  0
ARC
  8
LC-003-002-----0
 62
     1
  6
CONTINUOUS
 10
66.328888
 20
417.194550
 40
6.800000
 50
33.724967
 51
146.275031
  0
ARC
  8
LC-003-002-----0
 62
     1
  6
CONTINUOUS
 10
72.131256
 20
420.544525
 40
0.450000
 50
109.029797
 51
310.970204
  0
ARC
  8
LC-003-002-----0
 62
     1
  6
CONTINUOUS
 10
66.328888
 20
417.194550
 40
6.800000
 50
273.724971
 51
26.275031
  0
ARC
  8
LC-003-002-----0
 62
     1
  6
CONTINUOUS
 10
66.328888
 20
410.494537
 40
0.450000
 50
349.029795
 51
190.970208
  0
ARC
  8
LC-003-002-----0
 62
     1
  6
CONTINUOUS
 10
66.328888
 20
417.194550
 40
6.800000
 50
153.724964
 51
266.275031
  0
ARC
  8
LC-003-002-----0
 62
     1
  6
CONTINUOUS
 10
60.526516
 20
420.544525
 40
0.450000
 50
229.029798
 51
70.970208
  0
LINE
  8
LC-004-006-----0
 62
     2
  6
DASHED
 10
5.349910
 20
437.194550
 11
0.849910
 21
437.194550
  0
LINE
  8
LC-004-006-----0
 62
     2
  6
DASHED
 10
0.849910
 20
435.594543
 11
-0.650090
 21
435.594543
  0
LINE
  8
LC-004-006-----0
 62
     2
  6
DASHED
 10
0.849910
 20
437.194550
 11
0.849910
 21
429.194550
  0
LINE
  8
LC-004-006-----0
 62
     2
  6
DASHED
 10
0.849910
 20
430.794525
 11
-0.650090
 21
430.794525
  0
LINE
  8
LC-004-006-----0
 62
     2
  6
DASHED
 10
5.349910
 20
429.194550
 11
0.849910
 21
429.194550
  0
LINE
  8
LC-005-002-RND-0
 62
     2
  6
DASHDOT
 10
7.908364
 20
401.194550
 11
-3.519711
 21
401.194550
  0
LINE
  8
LC-004-006-----0
 62
     2
  6
DASHED
 10
5.349910
 20
397.194550
 11
0.849910
 21
397.194550
  0
LINE
  8
LC-004-006-----0
 62
     2
  6
DASHED
 10
0.849910
 20
398.794525
 11
-0.650090
 21
398.794525
  0
LINE
  8
LC-004-006-----0
 62
     2
  6
DASHED
 10
0.849910
 20
397.194550
 11
0.849910
 21
405.194550
  0
LINE
  8
LC-004-006-----0
 62
     2
  6
DASHED
 10
0.849910
 20
403.594543
 11
-0.650090
 21
403.594543
  0
LINE
  8
LC-004-006-----0
 62
     2
  6
DASHED
 10
5.349910
 20
405.194550
 11
0.849910
 21
405.194550
  0
LINE
  8
LC-004-006-----0
 62
     2
  6
DASHED
 10
0.849910
 20
413.194550
 11
0.849910
 21
421.194550
  0
LINE
  8
LC-004-006-----0
 62
     2
  6
DASHED
 10
0.849910
 20
419.594543
 11
-0.650090
 21
419.594543
  0
LINE
  8
LC-004-006-----0
 62
     2
  6
DASHED
 10
5.349910
 20
421.194550
 11
0.849910
 21
421.194550
  0
LINE
  8
LC-004-006-----0
 62
     2
  6
DASHED
 10
5.349910
 20
413.194550
 11
0.849910
 21
413.194550
  0
LINE
  8
LC-004-006-----0
 62
     2
  6
DASHED
 10
0.849910
 20
414.794525
 11
-0.650090
 21
414.794525
  0
LINE
  8
LC-003-002-----0
 62
     1
  6
CONTINUOUS
 10
16.744089
 20
419.809387
 11
5.349910
 21
419.809387
  0
LINE
  8
LC-003-002-----0
 62
     1
  6
CONTINUOUS
 10
16.713242
 20
421.040710
 11
5.349909
 21
421.040710
  0
LINE
  8
LC-004-006-----0
 62
     2
  6
DASHED
 10
5.349910
 20
421.040710
 11
-30.650089
 21
421.040710
  0
LINE
  8
LC-003-002-----0
 62
     1
  6
CONTINUOUS
 10
-30.650089
 20
421.040710
 11
-42.547909
 21
421.040710
  0
LINE
  8
LC-004-006-----0
 62
     2
  6
DASHED
 10
5.349910
 20
419.809387
 11
-30.650089
 21
419.809387
  0
LINE
  8
LC-003-002-----0
 62
     1
  6
CONTINUOUS
 10
-30.650089
 20
419.809387
 11
-42.670815
 21
419.809387
  0
CIRCLE
  8
LC-003-002-----0
 62
     1
  6
CONTINUOUS
 10
-12.650090
 20
417.194550
 40
0.750000
  0
ENDSEC
  0
EOF
