  0
SECTION
  2
HEADER
  9
$LIMMIN
 10
-270.473175
 20
-0.798446
  9
$LIMMAX
 10
-59.172821
 20
48.418488
  9
$EXTMIN
 10
-270.473175
 20
-0.798446
  9
$EXTMAX
 10
-59.172821
 20
48.418488
  0
ENDSEC
  0
SECTION
  2
TABLES
  0
TABLE
  2
LTYPE
 70
     3
  0
LTYPE
  2
CONTINUOUS
 70
    64
  3
Ausgezogene Linie
 72
    65
 73
     0
 40
0.0
  0
LTYPE
  2
DASHED
 70
    64
  3
__ __ __ __ __ __ __ __ __ __ __ __ __ __ __
 72
    65
 73
     2
 40
0.75
 49
0.5
 49
-0.25
  0
LTYPE
  2
DASHDOT
 70
    64
  3
__ . __ . __ . __ . __ . __ . __ . __ . __ . __
 72
    65
 73
     4
 40
1.0
 49
0.5
 49
-0.25
 49
0.0
 49
-0.25
  0
ENDTAB
  0
TABLE
  2
LAYER
 70
     4
  0
LAYER
  2
LC-004-006-----0
 70
    64
 62
     7
  6
CONTINUOUS
  0
LAYER
  2
LC-003-002-----0
 70
    64
 62
     7
  6
CONTINUOUS
  0
LAYER
  2
LC-006-012-----0
 70
    64
 62
     7
  6
CONTINUOUS
  0
LAYER
  2
LC-007-004-----0
 70
    64
 62
     7
  6
CONTINUOUS
  0
ENDTAB
  0
TABLE
  2
STYLE
 70
     1
  0
STYLE
  2
TXT8
 70
    64
 40
0.0
 41
1.0
 50
0.0
 71
     0
 42
3.500000
  3
TXT8
  4

  0
ENDTAB
  0
ENDSEC
  0
SECTION
  2
BLOCKS
  0
ENDSEC
  0
SECTION
  2
ENTITIES
  0
LINE
  8
LC-003-002-----0
 62
     2
  6
DASHDOT
 10
-109.454895
 20
22.493374
 11
-59.172821
 21
22.493374
  0
LINE
  8
LC-003-002-----0
 62
     2
  6
DASHDOT
 10
-84.625427
 20
48.418488
 11
-84.625427
 21
-0.798446
  0
CIRCLE
  8
LC-004-006-----0
 62
     1
  6
CONTINUOUS
 10
-84.625427
 20
22.493374
 40
12.500000
  0
ARC
  8
LC-004-006-----0
 62
     1
  6
CONTINUOUS
 10
-84.625427
 20
22.493374
 40
20.000000
 50
299.999998
 51
239.999997
  0
ARC
  8
LC-004-006-----0
 62
     1
  6
CONTINUOUS
 10
-84.625427
 20
22.493374
 40
13.000000
 50
299.999998
 51
239.999997
  0
LINE
  8
LC-004-006-----0
 62
     1
  6
CONTINUOUS
 10
-78.125427
 20
11.235042
 11
-74.625427
 21
5.172864
  0
LINE
  8
LC-004-006-----0
 62
     1
  6
CONTINUOUS
 10
-91.125427
 20
11.235042
 11
-94.625427
 21
5.172864
  0
ARC
  8
LC-004-006-----0
 62
     1
  6
CONTINUOUS
 10
-238.708389
 20
41.493374
 40
1.000000
 50
90.000003
 51
180.000009
  0
ARC
  8
LC-004-006-----0
 62
     1
  6
CONTINUOUS
 10
-238.708389
 20
6.172864
 40
1.000000
 50
180.000009
 51
269.999997
  0
ARC
  8
LC-004-006-----0
 62
     1
  6
CONTINUOUS
 10
-182.708389
 20
6.172864
 40
1.000000
 50
269.999997
 51
0.000000
  0
LINE
  8
LC-003-002-----0
 62
     2
  6
DASHDOT
 10
-270.473175
 20
22.493374
 11
-154.533997
 21
22.493374
  0
LINE
  8
LC-004-006-----0
 62
     1
  6
CONTINUOUS
 10
-238.708389
 20
42.493374
 11
-232.558395
 21
42.493374
  0
LINE
  8
LC-004-006-----0
 62
     1
  6
CONTINUOUS
 10
-238.708389
 20
5.172864
 11
-232.558395
 21
5.172864
  0
LINE
  8
LC-004-006-----0
 62
     1
  6
CONTINUOUS
 10
-239.708389
 20
6.172864
 11
-239.708389
 21
41.493374
  0
LINE
  8
LC-004-006-----0
 62
     1
  6
CONTINUOUS
 10
-181.708389
 20
6.172864
 11
-181.708389
 21
41.493374
  0
LINE
  8
LC-004-006-----0
 62
     1
  6
CONTINUOUS
 10
-264.702667
 20
34.993374
 11
-239.708389
 21
34.993374
  0
LINE
  8
LC-004-006-----0
 62
     1
  6
CONTINUOUS
 10
-265.622955
 20
9.993373
 11
-239.708389
 21
9.993373
  0
LINE
  8
LC-007-004-----0
 62
     2
  6
CONTINUOUS
 10
-265.622955
 20
9.993373
 11
-264.102570
 21
15.729886
  0
LINE
  8
LC-007-004-----0
 62
     2
  6
CONTINUOUS
 10
-264.102570
 20
15.729886
 11
-265.688385
 21
29.124678
  0
LINE
  8
LC-007-004-----0
 62
     2
  6
CONTINUOUS
 10
-265.688385
 20
29.124678
 11
-264.702667
 21
34.993374
  0
LINE
  8
LC-007-004-----0
 62
     2
  6
CONTINUOUS
 10
-161.033981
 20
9.993373
 11
-160.029663
 21
17.173243
  0
LINE
  8
LC-007-004-----0
 62
     2
  6
CONTINUOUS
 10
-160.029663
 20
17.173243
 11
-162.504089
 21
28.468607
  0
LINE
  8
LC-007-004-----0
 62
     2
  6
CONTINUOUS
 10
-162.504089
 20
28.468607
 11
-161.905579
 21
34.993374
  0
LINE
  8
LC-006-012-----0
 62
     2
  6
DASHED
 10
-239.708389
 20
34.993374
 11
-181.708389
 21
34.993374
  0
LINE
  8
LC-004-006-----0
 62
     1
  6
CONTINUOUS
 10
-181.708389
 20
34.993374
 11
-161.905579
 21
34.993374
  0
LINE
  8
LC-006-012-----0
 62
     2
  6
DASHED
 10
-239.708389
 20
9.993373
 11
-181.708389
 21
9.993373
  0
LINE
  8
LC-004-006-----0
 62
     1
  6
CONTINUOUS
 10
-181.708389
 20
9.993373
 11
-161.033981
 21
9.993373
  0
LINE
  8
LC-004-006-----0
 62
     1
  6
CONTINUOUS
 10
-190.708389
 20
5.172864
 11
-190.708389
 21
42.493374
  0
LINE
  8
LC-004-006-----0
 62
     1
  6
CONTINUOUS
 10
-230.708389
 20
5.172864
 11
-230.708389
 21
42.493374
  0
LINE
  8
LC-004-006-----0
 62
     1
  6
CONTINUOUS
 10
-188.858383
 20
5.172864
 11
-188.858383
 21
42.493374
  0
LINE
  8
LC-004-006-----0
 62
     1
  6
CONTINUOUS
 10
-232.558395
 20
5.172864
 11
-232.558395
 21
42.493374
  0
LINE
  8
LC-004-006-----0
 62
     1
  6
CONTINUOUS
 10
-230.708389
 20
42.493374
 11
-190.708389
 21
42.493374
  0
LINE
  8
LC-004-006-----0
 62
     1
  6
CONTINUOUS
 10
-230.708389
 20
5.172864
 11
-190.708389
 21
5.172864
  0
LINE
  8
LC-004-006-----0
 62
     1
  6
CONTINUOUS
 10
-188.858383
 20
5.172864
 11
-182.708389
 21
5.172864
  0
LINE
  8
LC-004-006-----0
 62
     1
  6
CONTINUOUS
 10
-188.858383
 20
42.493374
 11
-182.708389
 21
42.493374
  0
LINE
  8
LC-004-006-----0
 62
     1
  6
CONTINUOUS
 10
-232.558395
 20
41.243374
 11
-230.708389
 21
41.243374
  0
LINE
  8
LC-004-006-----0
 62
     1
  6
CONTINUOUS
 10
-190.708389
 20
41.243374
 11
-188.858383
 21
41.243374
  0
ARC
  8
LC-004-006-----0
 62
     1
  6
CONTINUOUS
 10
-182.708389
 20
41.493374
 40
1.000000
 50
0.000000
 51
90.000003
  0
LINE
  8
LC-004-006-----0
 62
     1
  6
CONTINUOUS
 10
-190.708389
 20
6.422864
 11
-188.858383
 21
6.422864
  0
LINE
  8
LC-004-006-----0
 62
     1
  6
CONTINUOUS
 10
-232.558395
 20
6.422864
 11
-230.708389
 21
6.422864
  0
LINE
  8
LC-003-002-----0
 62
     2
  6
DASHDOT
 10
-210.708389
 20
24.740767
 11
-210.708389
 21
17.530455
  0
LINE
  8
LC-003-002-----0
 62
     2
  6
DASHDOT
 10
-214.570190
 20
20.993374
 11
-207.212570
 21
20.993374
  0
CIRCLE
  8
LC-006-012-----0
 62
     2
  6
DASHED
 10
-210.708389
 20
20.993374
 40
0.750000
  0
CIRCLE
  8
LC-006-012-----0
 62
     2
  6
DASHED
 10
-210.708389
 20
20.993374
 40
1.800000
  0
ARC
  8
LC-004-006-----0
 62
     1
  6
CONTINUOUS
 10
-84.625427
 20
22.493374
 40
17.000000
 50
299.999998
 51
239.999997
  0
LINE
  8
LC-003-002-----0
 62
     2
  6
DASHDOT
 10
-107.396210
 20
20.993374
 11
-94.828964
 21
20.993374
  0
LINE
  8
LC-006-012-----0
 62
     2
  6
DASHED
 10
-103.069099
 20
21.743374
 11
-97.603775
 21
21.743374
  0
LINE
  8
LC-006-012-----0
 62
     2
  6
DASHED
 10
-103.069099
 20
20.243374
 11
-97.429237
 21
20.243374
  0
LINE
  8
LC-006-012-----0
 62
     2
  6
DASHED
 10
-104.623177
 20
22.793373
 11
-103.069099
 21
22.793373
  0
LINE
  8
LC-006-012-----0
 62
     2
  6
DASHED
 10
-104.351295
 20
19.193373
 11
-103.069099
 21
19.193373
  0
LINE
  8
LC-006-012-----0
 62
     2
  6
DASHED
 10
-103.069099
 20
19.193373
 11
-103.069099
 21
22.793373
  0
ENDSEC
  0
EOF
