  0
SECTION
  2
HEADER
  9
$LIMMIN
 10
320.052765
 20
312.535797
  9
$LIMMAX
 10
493.577850
 20
387.535797
  9
$EXTMIN
 10
320.052765
 20
312.535797
  9
$EXTMAX
 10
493.577850
 20
387.535797
  0
ENDSEC
  0
SECTION
  2
TABLES
  0
TABLE
  2
LTYPE
 70
     3
  0
LTYPE
  2
CONTINUOUS
 70
    64
  3
Ausgezogene Linie
 72
    65
 73
     0
 40
0.0
  0
LTYPE
  2
DASHED
 70
    64
  3
__ __ __ __ __ __ __ __ __ __ __ __ __ __ __
 72
    65
 73
     2
 40
0.75
 49
0.5
 49
-0.25
  0
LTYPE
  2
DASHDOT
 70
    64
  3
__ . __ . __ . __ . __ . __ . __ . __ . __ . __
 72
    65
 73
     4
 40
1.0
 49
0.5
 49
-0.25
 49
0.0
 49
-0.25
  0
ENDTAB
  0
TABLE
  2
LAYER
 70
     4
  0
LAYER
  2
LC-003-002-----0
 70
    64
 62
     7
  6
CONTINUOUS
  0
LAYER
  2
LC-004-006-----0
 70
    64
 62
     7
  6
CONTINUOUS
  0
LAYER
  2
LC-006-012-----0
 70
    64
 62
     7
  6
CONTINUOUS
  0
LAYER
  2
LC-007-004-----0
 70
    64
 62
     7
  6
CONTINUOUS
  0
ENDTAB
  0
TABLE
  2
STYLE
 70
     1
  0
STYLE
  2
TXT8
 70
    64
 40
0.0
 41
1.0
 50
0.0
 71
     0
 42
3.500000
  3
TXT8
  4

  0
ENDTAB
  0
ENDSEC
  0
SECTION
  2
BLOCKS
  0
ENDSEC
  0
SECTION
  2
ENTITIES
  0
LINE
  8
LC-004-006-----0
 62
     2
  6
DASHDOT
 10
320.052765
 20
350.035797
 11
493.577850
 21
350.035797
  0
LINE
  8
LC-003-002-----0
 62
     1
  6
CONTINUOUS
 10
330.592743
 20
375.035797
 11
361.309204
 21
375.035797
  0
LINE
  8
LC-003-002-----0
 62
     1
  6
CONTINUOUS
 10
330.156281
 20
325.035797
 11
361.309204
 21
325.035797
  0
LINE
  8
LC-003-002-----0
 62
     1
  6
CONTINUOUS
 10
361.309204
 20
348.535797
 11
361.309204
 21
314.535797
  0
LINE
  8
LC-003-002-----0
 62
     1
  6
CONTINUOUS
 10
361.309204
 20
385.535797
 11
361.309204
 21
351.535797
  0
LINE
  8
LC-003-002-----0
 62
     1
  6
CONTINUOUS
 10
461.309204
 20
348.535797
 11
461.309204
 21
314.535797
  0
LINE
  8
LC-003-002-----0
 62
     1
  6
CONTINUOUS
 10
461.309204
 20
385.535797
 11
461.309204
 21
351.535797
  0
LINE
  8
LC-003-002-----0
 62
     1
  6
CONTINUOUS
 10
363.309204
 20
387.535797
 11
372.659210
 21
387.535797
  0
LINE
  8
LC-003-002-----0
 62
     1
  6
CONTINUOUS
 10
375.309204
 20
387.535797
 11
447.309204
 21
387.535797
  0
LINE
  8
LC-003-002-----0
 62
     1
  6
CONTINUOUS
 10
363.309204
 20
312.535797
 11
372.659210
 21
312.535797
  0
LINE
  8
LC-007-004-----0
 62
     2
  6
CONTINUOUS
 10
330.156281
 20
325.035797
 11
332.170929
 21
336.535248
  0
LINE
  8
LC-007-004-----0
 62
     2
  6
CONTINUOUS
 10
332.170929
 20
336.535248
 11
326.810364
 21
356.235687
  0
LINE
  8
LC-007-004-----0
 62
     2
  6
CONTINUOUS
 10
326.810364
 20
356.235687
 11
330.592743
 21
375.035797
  0
LINE
  8
LC-007-004-----0
 62
     2
  6
CONTINUOUS
 10
490.613495
 20
325.035797
 11
488.197723
 21
334.910492
  0
LINE
  8
LC-007-004-----0
 62
     2
  6
CONTINUOUS
 10
488.197723
 20
334.910492
 11
491.113098
 21
358.943634
  0
LINE
  8
LC-007-004-----0
 62
     2
  6
CONTINUOUS
 10
491.113098
 20
358.943634
 11
489.283508
 21
375.035797
  0
LINE
  8
LC-006-012-----0
 62
     2
  6
DASHED
 10
361.309204
 20
375.035797
 11
461.309204
 21
375.035797
  0
LINE
  8
LC-003-002-----0
 62
     1
  6
CONTINUOUS
 10
461.309204
 20
375.035797
 11
489.283508
 21
375.035797
  0
LINE
  8
LC-006-012-----0
 62
     2
  6
DASHED
 10
361.309204
 20
325.035797
 11
461.309204
 21
325.035797
  0
LINE
  8
LC-003-002-----0
 62
     1
  6
CONTINUOUS
 10
461.309204
 20
325.035797
 11
490.613495
 21
325.035797
  0
LINE
  8
LC-003-002-----0
 62
     1
  6
CONTINUOUS
 10
447.309204
 20
351.535797
 11
447.309204
 21
387.535797
  0
LINE
  8
LC-003-002-----0
 62
     1
  6
CONTINUOUS
 10
447.309204
 20
312.535797
 11
447.309204
 21
348.535797
  0
LINE
  8
LC-003-002-----0
 62
     1
  6
CONTINUOUS
 10
375.309204
 20
351.535797
 11
375.309204
 21
387.535797
  0
LINE
  8
LC-003-002-----0
 62
     1
  6
CONTINUOUS
 10
375.309204
 20
312.535797
 11
375.309204
 21
348.535797
  0
LINE
  8
LC-003-002-----0
 62
     1
  6
CONTINUOUS
 10
449.959198
 20
351.535797
 11
449.959198
 21
387.535797
  0
LINE
  8
LC-003-002-----0
 62
     1
  6
CONTINUOUS
 10
449.959198
 20
312.535797
 11
449.959198
 21
348.535797
  0
LINE
  8
LC-003-002-----0
 62
     1
  6
CONTINUOUS
 10
372.659210
 20
351.535797
 11
372.659210
 21
387.535797
  0
LINE
  8
LC-003-002-----0
 62
     1
  6
CONTINUOUS
 10
372.659210
 20
312.535797
 11
372.659210
 21
348.535797
  0
LINE
  8
LC-003-002-----0
 62
     1
  6
CONTINUOUS
 10
375.309204
 20
312.535797
 11
447.309204
 21
312.535797
  0
LINE
  8
LC-003-002-----0
 62
     1
  6
CONTINUOUS
 10
449.959198
 20
312.535797
 11
459.309204
 21
312.535797
  0
LINE
  8
LC-003-002-----0
 62
     1
  6
CONTINUOUS
 10
449.959198
 20
387.535797
 11
459.309204
 21
387.535797
  0
LINE
  8
LC-003-002-----0
 62
     1
  6
CONTINUOUS
 10
372.659210
 20
386.035797
 11
375.309204
 21
386.035797
  0
LINE
  8
LC-003-002-----0
 62
     1
  6
CONTINUOUS
 10
447.309204
 20
386.035797
 11
449.959198
 21
386.035797
  0
LINE
  8
LC-003-002-----0
 62
     1
  6
CONTINUOUS
 10
447.309204
 20
314.035797
 11
449.959198
 21
314.035797
  0
LINE
  8
LC-003-002-----0
 62
     1
  6
CONTINUOUS
 10
372.659210
 20
314.035797
 11
375.309204
 21
314.035797
  0
ARC
  8
LC-003-002-----0
 62
     1
  6
CONTINUOUS
 10
363.309204
 20
385.535797
 40
2.000000
 50
90.000003
 51
180.000009
  0
ARC
  8
LC-003-002-----0
 62
     1
  6
CONTINUOUS
 10
363.309204
 20
314.535797
 40
2.000000
 50
180.000009
 51
269.999997
  0
ARC
  8
LC-003-002-----0
 62
     1
  6
CONTINUOUS
 10
459.309204
 20
314.535797
 40
2.000000
 50
269.999997
 51
0.000000
  0
ARC
  8
LC-003-002-----0
 62
     1
  6
CONTINUOUS
 10
459.309204
 20
385.535797
 40
2.000000
 50
0.000000
 51
90.000003
  0
LINE
  8
LC-003-002-----0
 62
     1
  6
CONTINUOUS
 10
361.309204
 20
351.535797
 11
461.309204
 21
351.535797
  0
LINE
  8
LC-003-002-----0
 62
     1
  6
CONTINUOUS
 10
361.309204
 20
348.535797
 11
461.309204
 21
348.535797
  0
ENDSEC
  0
EOF
