  0
SECTION
  2
HEADER
  9
$LIMMIN
 10
9.193995
 20
-63.122192
  9
$LIMMAX
 10
164.366806
 20
-1.122192
  9
$EXTMIN
 10
9.193995
 20
-63.122192
  9
$EXTMAX
 10
164.366806
 20
-1.122192
  0
ENDSEC
  0
SECTION
  2
TABLES
  0
TABLE
  2
LTYPE
 70
     3
  0
LTYPE
  2
CONTINUOUS
 70
    64
  3
Ausgezogene Linie
 72
    65
 73
     0
 40
0.0
  0
LTYPE
  2
DASHED
 70
    64
  3
__ __ __ __ __ __ __ __ __ __ __ __ __ __ __
 72
    65
 73
     2
 40
0.75
 49
0.5
 49
-0.25
  0
LTYPE
  2
DASHDOT
 70
    64
  3
__ . __ . __ . __ . __ . __ . __ . __ . __ . __
 72
    65
 73
     4
 40
1.0
 49
0.5
 49
-0.25
 49
0.0
 49
-0.25
  0
ENDTAB
  0
TABLE
  2
LAYER
 70
     4
  0
LAYER
  2
LC-003-002-----0
 70
    64
 62
     7
  6
CONTINUOUS
  0
LAYER
  2
LC-004-006-----0
 70
    64
 62
     7
  6
CONTINUOUS
  0
LAYER
  2
LC-006-012-----0
 70
    64
 62
     7
  6
CONTINUOUS
  0
LAYER
  2
LC-007-004-----0
 70
    64
 62
     7
  6
CONTINUOUS
  0
ENDTAB
  0
TABLE
  2
STYLE
 70
     1
  0
STYLE
  2
TXT8
 70
    64
 40
0.0
 41
1.0
 50
0.0
 71
     0
 42
3.500000
  3
TXT8
  4

  0
ENDTAB
  0
ENDSEC
  0
SECTION
  2
BLOCKS
  0
ENDSEC
  0
SECTION
  2
ENTITIES
  0
LINE
  8
LC-004-006-----0
 62
     2
  6
DASHDOT
 10
9.193995
 20
-32.122192
 11
164.366806
 21
-32.122192
  0
LINE
  8
LC-003-002-----0
 62
     1
  6
CONTINUOUS
 10
50.824039
 20
-1.122192
 11
59.174042
 21
-1.122192
  0
LINE
  8
LC-003-002-----0
 62
     1
  6
CONTINUOUS
 10
50.824039
 20
-63.122192
 11
59.174042
 21
-63.122192
  0
LINE
  8
LC-003-002-----0
 62
     1
  6
CONTINUOUS
 10
49.324039
 20
-33.622192
 11
49.324039
 21
-61.622192
  0
LINE
  8
LC-003-002-----0
 62
     1
  6
CONTINUOUS
 10
49.324039
 20
-2.622192
 11
49.324039
 21
-30.622192
  0
LINE
  8
LC-003-002-----0
 62
     1
  6
CONTINUOUS
 10
129.324036
 20
-33.622192
 11
129.324036
 21
-61.622192
  0
LINE
  8
LC-003-002-----0
 62
     1
  6
CONTINUOUS
 10
129.324036
 20
-2.622192
 11
129.324036
 21
-30.622192
  0
LINE
  8
LC-003-002-----0
 62
     1
  6
CONTINUOUS
 10
19.125500
 20
-12.122192
 11
49.324039
 21
-12.122192
  0
LINE
  8
LC-003-002-----0
 62
     1
  6
CONTINUOUS
 10
16.640265
 20
-52.122192
 11
49.324039
 21
-52.122192
  0
LINE
  8
LC-007-004-----0
 62
     2
  6
CONTINUOUS
 10
16.640265
 20
-52.122192
 11
19.257433
 21
-40.745975
  0
LINE
  8
LC-007-004-----0
 62
     2
  6
CONTINUOUS
 10
19.257433
 20
-40.745975
 11
15.981750
 21
-24.526072
  0
LINE
  8
LC-007-004-----0
 62
     2
  6
CONTINUOUS
 10
15.981750
 20
-24.526073
 11
19.125500
 21
-12.122192
  0
LINE
  8
LC-007-004-----0
 62
     2
  6
CONTINUOUS
 10
156.908798
 20
-52.122192
 11
159.976715
 21
-41.880421
  0
LINE
  8
LC-007-004-----0
 62
     2
  6
CONTINUOUS
 10
159.976715
 20
-41.880421
 11
156.042511
 21
-22.574554
  0
LINE
  8
LC-007-004-----0
 62
     2
  6
CONTINUOUS
 10
156.042511
 20
-22.574553
 11
157.456863
 21
-12.122192
  0
LINE
  8
LC-006-012-----0
 62
     2
  6
DASHED
 10
49.324039
 20
-12.122192
 11
129.324036
 21
-12.122192
  0
LINE
  8
LC-003-002-----0
 62
     1
  6
CONTINUOUS
 10
129.324036
 20
-12.122192
 11
157.456863
 21
-12.122192
  0
LINE
  8
LC-006-012-----0
 62
     2
  6
DASHED
 10
49.324039
 20
-52.122192
 11
129.324036
 21
-52.122192
  0
LINE
  8
LC-003-002-----0
 62
     1
  6
CONTINUOUS
 10
129.324036
 20
-52.122192
 11
156.908798
 21
-52.122192
  0
LINE
  8
LC-003-002-----0
 62
     1
  6
CONTINUOUS
 10
117.324043
 20
-30.622192
 11
117.324043
 21
-1.122192
  0
LINE
  8
LC-003-002-----0
 62
     1
  6
CONTINUOUS
 10
117.324043
 20
-63.122192
 11
117.324043
 21
-33.622192
  0
LINE
  8
LC-003-002-----0
 62
     1
  6
CONTINUOUS
 10
119.474037
 20
-30.622192
 11
119.474037
 21
-1.122192
  0
LINE
  8
LC-003-002-----0
 62
     1
  6
CONTINUOUS
 10
119.474037
 20
-63.122192
 11
119.474037
 21
-33.622192
  0
LINE
  8
LC-003-002-----0
 62
     1
  6
CONTINUOUS
 10
117.324043
 20
-2.622192
 11
119.474037
 21
-2.622192
  0
LINE
  8
LC-003-002-----0
 62
     1
  6
CONTINUOUS
 10
117.324043
 20
-61.622192
 11
119.474037
 21
-61.622192
  0
LINE
  8
LC-003-002-----0
 62
     1
  6
CONTINUOUS
 10
119.474037
 20
-1.122192
 11
127.824043
 21
-1.122192
  0
LINE
  8
LC-003-002-----0
 62
     1
  6
CONTINUOUS
 10
119.474037
 20
-63.122192
 11
127.824043
 21
-63.122192
  0
LINE
  8
LC-003-002-----0
 62
     1
  6
CONTINUOUS
 10
61.324039
 20
-30.622192
 11
61.324039
 21
-1.122192
  0
LINE
  8
LC-003-002-----0
 62
     1
  6
CONTINUOUS
 10
61.324039
 20
-63.122192
 11
61.324039
 21
-33.622192
  0
LINE
  8
LC-003-002-----0
 62
     1
  6
CONTINUOUS
 10
59.174042
 20
-30.622192
 11
59.174042
 21
-1.122192
  0
LINE
  8
LC-003-002-----0
 62
     1
  6
CONTINUOUS
 10
59.174042
 20
-63.122192
 11
59.174042
 21
-33.622192
  0
LINE
  8
LC-003-002-----0
 62
     1
  6
CONTINUOUS
 10
61.324039
 20
-2.622192
 11
59.174042
 21
-2.622192
  0
LINE
  8
LC-003-002-----0
 62
     1
  6
CONTINUOUS
 10
61.324039
 20
-61.622192
 11
59.174042
 21
-61.622192
  0
LINE
  8
LC-003-002-----0
 62
     1
  6
CONTINUOUS
 10
61.324039
 20
-1.122192
 11
117.324043
 21
-1.122192
  0
LINE
  8
LC-003-002-----0
 62
     1
  6
CONTINUOUS
 10
61.324039
 20
-63.122192
 11
117.324043
 21
-63.122192
  0
ARC
  8
LC-003-002-----0
 62
     1
  6
CONTINUOUS
 10
50.824039
 20
-2.622192
 40
1.500000
 50
90.000003
 51
180.000009
  0
ARC
  8
LC-003-002-----0
 62
     1
  6
CONTINUOUS
 10
50.824039
 20
-61.622192
 40
1.500000
 50
180.000009
 51
269.999997
  0
ARC
  8
LC-003-002-----0
 62
     1
  6
CONTINUOUS
 10
127.824043
 20
-61.622192
 40
1.500000
 50
269.999997
 51
0.000000
  0
ARC
  8
LC-003-002-----0
 62
     1
  6
CONTINUOUS
 10
127.824043
 20
-2.622192
 40
1.500000
 50
0.000000
 51
90.000003
  0
LINE
  8
LC-003-002-----0
 62
     1
  6
CONTINUOUS
 10
49.324039
 20
-30.622192
 11
129.324036
 21
-30.622192
  0
LINE
  8
LC-003-002-----0
 62
     1
  6
CONTINUOUS
 10
49.324039
 20
-33.622192
 11
129.324036
 21
-33.622192
  0
ENDSEC
  0
EOF
