  0
SECTION
  2
HEADER
  9
$LIMMIN
 10
24.924639
 20
340.471130
  9
$LIMMAX
 10
121.695389
 20
372.471130
  9
$EXTMIN
 10
24.924639
 20
340.471130
  9
$EXTMAX
 10
121.695389
 20
372.471130
  0
ENDSEC
  0
SECTION
  2
TABLES
  0
TABLE
  2
LTYPE
 70
     3
  0
LTYPE
  2
CONTINUOUS
 70
    64
  3
Ausgezogene Linie
 72
    65
 73
     0
 40
0.0
  0
LTYPE
  2
DASHED
 70
    64
  3
__ __ __ __ __ __ __ __ __ __ __ __ __ __ __
 72
    65
 73
     2
 40
0.75
 49
0.5
 49
-0.25
  0
LTYPE
  2
DASHDOT
 70
    64
  3
__ . __ . __ . __ . __ . __ . __ . __ . __ . __
 72
    65
 73
     4
 40
1.0
 49
0.5
 49
-0.25
 49
0.0
 49
-0.25
  0
ENDTAB
  0
TABLE
  2
LAYER
 70
     4
  0
LAYER
  2
LC-003-002-----0
 70
    64
 62
     7
  6
CONTINUOUS
  0
LAYER
  2
LC-004-006-----0
 70
    64
 62
     7
  6
CONTINUOUS
  0
LAYER
  2
LC-006-012-----0
 70
    64
 62
     7
  6
CONTINUOUS
  0
LAYER
  2
LC-007-004-----0
 70
    64
 62
     7
  6
CONTINUOUS
  0
ENDTAB
  0
TABLE
  2
STYLE
 70
     1
  0
STYLE
  2
TXT8
 70
    64
 40
0.0
 41
1.0
 50
0.0
 71
     0
 42
3.500000
  3
TXT8
  4

  0
ENDTAB
  0
ENDSEC
  0
SECTION
  2
BLOCKS
  0
ENDSEC
  0
SECTION
  2
ENTITIES
  0
LINE
  8
LC-004-006-----0
 62
     2
  6
DASHDOT
 10
24.924639
 20
356.471130
 11
121.695389
 21
356.471130
  0
LINE
  8
LC-003-002-----0
 62
     1
  6
CONTINUOUS
 10
50.324039
 20
372.471130
 11
56.224041
 21
372.471130
  0
LINE
  8
LC-003-002-----0
 62
     1
  6
CONTINUOUS
 10
50.324039
 20
340.471130
 11
56.224041
 21
340.471130
  0
LINE
  8
LC-003-002-----0
 62
     1
  6
CONTINUOUS
 10
49.324039
 20
341.471130
 11
49.324039
 21
371.471130
  0
LINE
  8
LC-003-002-----0
 62
     1
  6
CONTINUOUS
 10
94.324043
 20
341.471130
 11
94.324043
 21
371.471130
  0
LINE
  8
LC-003-002-----0
 62
     1
  6
CONTINUOUS
 10
27.439808
 20
366.471130
 11
49.324039
 21
366.471130
  0
LINE
  8
LC-003-002-----0
 62
     1
  6
CONTINUOUS
 10
26.422396
 20
346.471130
 11
49.324039
 21
346.471130
  0
LINE
  8
LC-006-012-----0
 62
     2
  6
DASHED
 10
49.324039
 20
366.471130
 11
94.324043
 21
366.471130
  0
LINE
  8
LC-003-002-----0
 62
     1
  6
CONTINUOUS
 10
94.324043
 20
366.471130
 11
116.276955
 21
366.471130
  0
LINE
  8
LC-006-012-----0
 62
     2
  6
DASHED
 10
49.324039
 20
346.471130
 11
94.324043
 21
346.471130
  0
LINE
  8
LC-003-002-----0
 62
     1
  6
CONTINUOUS
 10
94.324043
 20
346.471130
 11
117.613533
 21
346.471130
  0
LINE
  8
LC-007-004-----0
 62
     2
  6
CONTINUOUS
 10
26.422396
 20
346.471130
 11
27.905367
 21
352.159027
  0
LINE
  8
LC-007-004-----0
 62
     2
  6
CONTINUOUS
 10
27.905367
 20
352.159027
 11
26.196259
 21
363.076416
  0
LINE
  8
LC-007-004-----0
 62
     2
  6
CONTINUOUS
 10
26.196259
 20
363.076416
 11
27.439808
 21
366.471130
  0
LINE
  8
LC-007-004-----0
 62
     2
  6
CONTINUOUS
 10
117.613533
 20
346.471130
 11
116.254112
 21
352.883850
  0
LINE
  8
LC-007-004-----0
 62
     2
  6
CONTINUOUS
 10
116.254112
 20
352.883850
 11
117.221359
 21
362.986267
  0
LINE
  8
LC-007-004-----0
 62
     2
  6
CONTINUOUS
 10
117.221359
 20
362.986267
 11
116.276955
 21
366.471130
  0
LINE
  8
LC-003-002-----0
 62
     1
  6
CONTINUOUS
 10
85.824043
 20
356.471130
 11
85.824043
 21
372.471130
  0
LINE
  8
LC-003-002-----0
 62
     1
  6
CONTINUOUS
 10
85.824043
 20
340.471130
 11
85.824043
 21
356.471130
  0
LINE
  8
LC-003-002-----0
 62
     1
  6
CONTINUOUS
 10
57.824039
 20
356.471130
 11
57.824039
 21
372.471130
  0
LINE
  8
LC-003-002-----0
 62
     1
  6
CONTINUOUS
 10
57.824039
 20
340.471130
 11
57.824039
 21
356.471130
  0
LINE
  8
LC-003-002-----0
 62
     1
  6
CONTINUOUS
 10
87.424042
 20
356.471130
 11
87.424042
 21
372.471130
  0
LINE
  8
LC-003-002-----0
 62
     1
  6
CONTINUOUS
 10
87.424042
 20
340.471130
 11
87.424042
 21
356.471130
  0
LINE
  8
LC-003-002-----0
 62
     1
  6
CONTINUOUS
 10
56.224041
 20
356.471130
 11
56.224041
 21
372.471130
  0
LINE
  8
LC-003-002-----0
 62
     1
  6
CONTINUOUS
 10
56.224041
 20
340.471130
 11
56.224041
 21
356.471130
  0
LINE
  8
LC-003-002-----0
 62
     1
  6
CONTINUOUS
 10
57.824039
 20
372.471130
 11
85.824043
 21
372.471130
  0
LINE
  8
LC-003-002-----0
 62
     1
  6
CONTINUOUS
 10
57.824039
 20
340.471130
 11
85.824043
 21
340.471130
  0
LINE
  8
LC-003-002-----0
 62
     1
  6
CONTINUOUS
 10
87.424042
 20
340.471130
 11
93.324043
 21
340.471130
  0
LINE
  8
LC-003-002-----0
 62
     1
  6
CONTINUOUS
 10
87.424042
 20
372.471130
 11
93.324043
 21
372.471130
  0
LINE
  8
LC-003-002-----0
 62
     1
  6
CONTINUOUS
 10
56.224041
 20
371.621124
 11
57.824039
 21
371.621124
  0
LINE
  8
LC-003-002-----0
 62
     1
  6
CONTINUOUS
 10
85.824043
 20
371.621124
 11
87.424042
 21
371.621124
  0
LINE
  8
LC-003-002-----0
 62
     1
  6
CONTINUOUS
 10
85.824043
 20
341.321106
 11
87.424042
 21
341.321106
  0
LINE
  8
LC-003-002-----0
 62
     1
  6
CONTINUOUS
 10
56.224041
 20
341.321106
 11
57.824039
 21
341.321106
  0
ARC
  8
LC-003-002-----0
 62
     1
  6
CONTINUOUS
 10
50.324039
 20
371.471130
 40
1.000000
 50
90.000003
 51
180.000009
  0
ARC
  8
LC-003-002-----0
 62
     1
  6
CONTINUOUS
 10
50.324039
 20
341.471130
 40
1.000000
 50
180.000009
 51
269.999997
  0
ARC
  8
LC-003-002-----0
 62
     1
  6
CONTINUOUS
 10
93.324043
 20
341.471130
 40
1.000000
 50
269.999997
 51
0.000000
  0
ARC
  8
LC-003-002-----0
 62
     1
  6
CONTINUOUS
 10
93.324043
 20
371.471130
 40
1.000000
 50
0.000000
 51
90.000003
  0
ENDSEC
  0
EOF
