  0
SECTION
  2
HEADER
  9
$LIMMIN
 10
-142.417282
 20
3.924831
  9
$LIMMAX
 10
-61.058315
 20
25.924831
  9
$EXTMIN
 10
-142.417282
 20
3.924831
  9
$EXTMAX
 10
-61.058315
 20
25.924831
  0
ENDSEC
  0
SECTION
  2
TABLES
  0
TABLE
  2
LTYPE
 70
     3
  0
LTYPE
  2
CONTINUOUS
 70
    64
  3
Ausgezogene Linie
 72
    65
 73
     0
 40
0.0
  0
LTYPE
  2
DASHED
 70
    64
  3
__ __ __ __ __ __ __ __ __ __ __ __ __ __ __
 72
    65
 73
     2
 40
0.75
 49
0.5
 49
-0.25
  0
LTYPE
  2
DASHDOT
 70
    64
  3
__ . __ . __ . __ . __ . __ . __ . __ . __ . __
 72
    65
 73
     4
 40
1.0
 49
0.5
 49
-0.25
 49
0.0
 49
-0.25
  0
ENDTAB
  0
TABLE
  2
LAYER
 70
     4
  0
LAYER
  2
LC-003-002-----0
 70
    64
 62
     7
  6
CONTINUOUS
  0
LAYER
  2
LC-004-006-----0
 70
    64
 62
     7
  6
CONTINUOUS
  0
LAYER
  2
LC-006-012-----0
 70
    64
 62
     7
  6
CONTINUOUS
  0
LAYER
  2
LC-007-004-----0
 70
    64
 62
     7
  6
CONTINUOUS
  0
ENDTAB
  0
TABLE
  2
STYLE
 70
     1
  0
STYLE
  2
TXT8
 70
    64
 40
0.0
 41
1.0
 50
0.0
 71
     0
 42
3.500000
  3
TXT8
  4

  0
ENDTAB
  0
ENDSEC
  0
SECTION
  2
BLOCKS
  0
ENDSEC
  0
SECTION
  2
ENTITIES
  0
LINE
  8
LC-004-006-----0
 62
     2
  6
DASHDOT
 10
-142.417282
 20
14.924831
 11
-61.058315
 21
14.924831
  0
LINE
  8
LC-003-002-----0
 62
     1
  6
CONTINUOUS
 10
-119.097755
 20
25.924831
 11
-115.147751
 21
25.924831
  0
LINE
  8
LC-003-002-----0
 62
     1
  6
CONTINUOUS
 10
-119.097755
 20
3.924831
 11
-115.147751
 21
3.924831
  0
LINE
  8
LC-003-002-----0
 62
     1
  6
CONTINUOUS
 10
-119.847755
 20
4.674831
 11
-119.847755
 21
25.174831
  0
LINE
  8
LC-003-002-----0
 62
     1
  6
CONTINUOUS
 10
-87.847755
 20
4.674831
 11
-87.847755
 21
25.174831
  0
LINE
  8
LC-003-002-----0
 62
     1
  6
CONTINUOUS
 10
-139.362549
 20
20.924831
 11
-119.847755
 21
20.924831
  0
LINE
  8
LC-003-002-----0
 62
     1
  6
CONTINUOUS
 10
-139.592255
 20
8.924831
 11
-119.847755
 21
8.924831
  0
LINE
  8
LC-007-004-----0
 62
     2
  6
CONTINUOUS
 10
-139.592255
 20
8.924831
 11
-138.593399
 21
11.820618
  0
LINE
  8
LC-007-004-----0
 62
     2
  6
CONTINUOUS
 10
-138.593399
 20
11.820618
 11
-140.105728
 21
18.434273
  0
LINE
  8
LC-007-004-----0
 62
     2
  6
CONTINUOUS
 10
-140.105728
 20
18.434273
 11
-139.362549
 21
20.924831
  0
LINE
  8
LC-007-004-----0
 62
     2
  6
CONTINUOUS
 10
-65.709686
 20
8.924831
 11
-65.042046
 21
11.584591
  0
LINE
  8
LC-007-004-----0
 62
     2
  6
CONTINUOUS
 10
-65.042046
 20
11.584591
 11
-66.874069
 21
17.962221
  0
LINE
  8
LC-007-004-----0
 62
     2
  6
CONTINUOUS
 10
-66.874069
 20
17.962221
 11
-66.838280
 21
20.924831
  0
LINE
  8
LC-006-012-----0
 62
     2
  6
DASHED
 10
-119.847755
 20
20.924831
 11
-87.847755
 21
20.924831
  0
LINE
  8
LC-003-002-----0
 62
     1
  6
CONTINUOUS
 10
-87.847755
 20
20.924831
 11
-66.838280
 21
20.924831
  0
LINE
  8
LC-006-012-----0
 62
     2
  6
DASHED
 10
-119.847755
 20
8.924831
 11
-87.847755
 21
8.924831
  0
LINE
  8
LC-003-002-----0
 62
     1
  6
CONTINUOUS
 10
-87.847755
 20
8.924831
 11
-65.709686
 21
8.924831
  0
LINE
  8
LC-003-002-----0
 62
     1
  6
CONTINUOUS
 10
-113.847755
 20
3.924831
 11
-93.847755
 21
3.924831
  0
LINE
  8
LC-003-002-----0
 62
     1
  6
CONTINUOUS
 10
-93.847755
 20
14.924831
 11
-93.847755
 21
25.924831
  0
LINE
  8
LC-003-002-----0
 62
     1
  6
CONTINUOUS
 10
-93.847755
 20
3.924831
 11
-93.847755
 21
14.924831
  0
LINE
  8
LC-003-002-----0
 62
     1
  6
CONTINUOUS
 10
-113.847755
 20
14.924831
 11
-113.847755
 21
25.924831
  0
LINE
  8
LC-003-002-----0
 62
     1
  6
CONTINUOUS
 10
-113.847755
 20
3.924831
 11
-113.847755
 21
14.924831
  0
LINE
  8
LC-003-002-----0
 62
     1
  6
CONTINUOUS
 10
-92.547752
 20
14.924831
 11
-92.547752
 21
25.924831
  0
LINE
  8
LC-003-002-----0
 62
     1
  6
CONTINUOUS
 10
-92.547752
 20
3.924831
 11
-92.547752
 21
14.924831
  0
LINE
  8
LC-003-002-----0
 62
     1
  6
CONTINUOUS
 10
-115.147751
 20
14.924831
 11
-115.147751
 21
25.924831
  0
LINE
  8
LC-003-002-----0
 62
     1
  6
CONTINUOUS
 10
-115.147751
 20
3.924831
 11
-115.147751
 21
14.924831
  0
LINE
  8
LC-003-002-----0
 62
     1
  6
CONTINUOUS
 10
-92.547752
 20
3.924831
 11
-88.597755
 21
3.924831
  0
LINE
  8
LC-003-002-----0
 62
     1
  6
CONTINUOUS
 10
-92.547752
 20
25.924831
 11
-88.597755
 21
25.924831
  0
LINE
  8
LC-003-002-----0
 62
     1
  6
CONTINUOUS
 10
-113.847755
 20
25.924831
 11
-93.847755
 21
25.924831
  0
LINE
  8
LC-003-002-----0
 62
     1
  6
CONTINUOUS
 10
-115.147751
 20
4.424831
 11
-113.847755
 21
4.424831
  0
LINE
  8
LC-003-002-----0
 62
     1
  6
CONTINUOUS
 10
-93.847755
 20
4.424831
 11
-92.547752
 21
4.424831
  0
LINE
  8
LC-003-002-----0
 62
     1
  6
CONTINUOUS
 10
-93.847755
 20
25.424831
 11
-92.547752
 21
25.424831
  0
LINE
  8
LC-003-002-----0
 62
     1
  6
CONTINUOUS
 10
-115.147751
 20
25.424831
 11
-113.847755
 21
25.424831
  0
ARC
  8
LC-003-002-----0
 62
     1
  6
CONTINUOUS
 10
-119.097755
 20
25.174831
 40
0.750000
 50
90.000003
 51
180.000009
  0
ARC
  8
LC-003-002-----0
 62
     1
  6
CONTINUOUS
 10
-119.097755
 20
4.674831
 40
0.750000
 50
180.000009
 51
269.999997
  0
ARC
  8
LC-003-002-----0
 62
     1
  6
CONTINUOUS
 10
-88.597755
 20
4.674831
 40
0.750000
 50
269.999997
 51
0.000000
  0
ARC
  8
LC-003-002-----0
 62
     1
  6
CONTINUOUS
 10
-88.597755
 20
25.174831
 40
0.750000
 50
0.000000
 51
90.000003
  0
ENDSEC
  0
EOF
