  0
SECTION
  2
HEADER
  9
$LIMMIN
 10
-141.398224
 20
110.209358
  9
$LIMMAX
 10
-73.041763
 20
129.209351
  9
$EXTMIN
 10
-141.398224
 20
110.209358
  9
$EXTMAX
 10
-73.041763
 20
129.209351
  0
ENDSEC
  0
SECTION
  2
TABLES
  0
TABLE
  2
LTYPE
 70
     3
  0
LTYPE
  2
CONTINUOUS
 70
    64
  3
Ausgezogene Linie
 72
    65
 73
     0
 40
0.0
  0
LTYPE
  2
DASHED
 70
    64
  3
__ __ __ __ __ __ __ __ __ __ __ __ __ __ __
 72
    65
 73
     2
 40
0.75
 49
0.5
 49
-0.25
  0
LTYPE
  2
DASHDOT
 70
    64
  3
__ . __ . __ . __ . __ . __ . __ . __ . __ . __
 72
    65
 73
     4
 40
1.0
 49
0.5
 49
-0.25
 49
0.0
 49
-0.25
  0
ENDTAB
  0
TABLE
  2
LAYER
 70
     4
  0
LAYER
  2
LC-003-002-----0
 70
    64
 62
     7
  6
CONTINUOUS
  0
LAYER
  2
LC-004-006-----0
 70
    64
 62
     7
  6
CONTINUOUS
  0
LAYER
  2
LC-006-012-----0
 70
    64
 62
     7
  6
CONTINUOUS
  0
LAYER
  2
LC-007-004-----0
 70
    64
 62
     7
  6
CONTINUOUS
  0
ENDTAB
  0
TABLE
  2
STYLE
 70
     1
  0
STYLE
  2
TXT8
 70
    64
 40
0.0
 41
1.0
 50
0.0
 71
     0
 42
3.500000
  3
TXT8
  4

  0
ENDTAB
  0
ENDSEC
  0
SECTION
  2
BLOCKS
  0
ENDSEC
  0
SECTION
  2
ENTITIES
  0
LINE
  8
LC-004-006-----0
 62
     2
  6
DASHDOT
 10
-141.398224
 20
119.709358
 11
-73.041763
 21
119.709358
  0
LINE
  8
LC-003-002-----0
 62
     1
  6
CONTINUOUS
 10
-119.969727
 20
129.209351
 11
-116.769722
 21
129.209351
  0
LINE
  8
LC-003-002-----0
 62
     1
  6
CONTINUOUS
 10
-119.969727
 20
110.209358
 11
-116.769722
 21
110.209358
  0
LINE
  8
LC-003-002-----0
 62
     1
  6
CONTINUOUS
 10
-120.469727
 20
128.709351
 11
-120.469727
 21
110.709366
  0
LINE
  8
LC-003-002-----0
 62
     1
  6
CONTINUOUS
 10
-91.469727
 20
128.709351
 11
-91.469727
 21
110.709366
  0
LINE
  8
LC-003-002-----0
 62
     1
  6
CONTINUOUS
 10
-138.216629
 20
124.709358
 11
-120.469734
 21
124.709358
  0
LINE
  8
LC-003-002-----0
 62
     1
  6
CONTINUOUS
 10
-138.401840
 20
114.709358
 11
-120.469719
 21
114.709358
  0
LINE
  8
LC-007-004-----0
 62
     2
  6
CONTINUOUS
 10
-138.401840
 20
114.709358
 11
-137.213837
 21
117.500854
  0
LINE
  8
LC-007-004-----0
 62
     2
  6
CONTINUOUS
 10
-137.213837
 20
117.500854
 11
-138.688812
 21
122.548981
  0
LINE
  8
LC-007-004-----0
 62
     2
  6
CONTINUOUS
 10
-138.688812
 20
122.548981
 11
-138.216629
 21
124.709358
  0
LINE
  8
LC-007-004-----0
 62
     2
  6
CONTINUOUS
 10
-75.285828
 20
114.709358
 11
-74.687668
 21
117.379333
  0
LINE
  8
LC-007-004-----0
 62
     2
  6
CONTINUOUS
 10
-74.687668
 20
117.379333
 11
-76.738708
 21
122.427460
  0
LINE
  8
LC-007-004-----0
 62
     2
  6
CONTINUOUS
 10
-76.738708
 20
122.427460
 11
-76.241837
 21
124.709358
  0
LINE
  8
LC-006-012-----0
 62
     2
  6
DASHED
 10
-120.469727
 20
124.709358
 11
-91.469727
 21
124.709358
  0
LINE
  8
LC-003-002-----0
 62
     1
  6
CONTINUOUS
 10
-91.469727
 20
124.709358
 11
-76.241837
 21
124.709358
  0
LINE
  8
LC-006-012-----0
 62
     2
  6
DASHED
 10
-120.469727
 20
114.709358
 11
-91.469727
 21
114.709358
  0
LINE
  8
LC-003-002-----0
 62
     1
  6
CONTINUOUS
 10
-91.469727
 20
114.709358
 11
-75.285828
 21
114.709358
  0
LINE
  8
LC-003-002-----0
 62
     1
  6
CONTINUOUS
 10
-96.469727
 20
110.209358
 11
-96.469727
 21
129.209351
  0
LINE
  8
LC-003-002-----0
 62
     1
  6
CONTINUOUS
 10
-115.469727
 20
110.209358
 11
-115.469727
 21
129.209351
  0
LINE
  8
LC-003-002-----0
 62
     1
  6
CONTINUOUS
 10
-95.169724
 20
110.209358
 11
-95.169724
 21
129.209351
  0
LINE
  8
LC-003-002-----0
 62
     1
  6
CONTINUOUS
 10
-116.769722
 20
110.209358
 11
-116.769722
 21
129.209351
  0
LINE
  8
LC-003-002-----0
 62
     1
  6
CONTINUOUS
 10
-115.469727
 20
129.209351
 11
-96.469727
 21
129.209351
  0
LINE
  8
LC-003-002-----0
 62
     1
  6
CONTINUOUS
 10
-95.169724
 20
129.209351
 11
-91.969727
 21
129.209351
  0
LINE
  8
LC-003-002-----0
 62
     1
  6
CONTINUOUS
 10
-95.169724
 20
110.209358
 11
-91.969727
 21
110.209358
  0
LINE
  8
LC-003-002-----0
 62
     1
  6
CONTINUOUS
 10
-115.469727
 20
110.209358
 11
-96.469727
 21
110.209358
  0
LINE
  8
LC-003-002-----0
 62
     1
  6
CONTINUOUS
 10
-116.769722
 20
128.709351
 11
-115.469727
 21
128.709351
  0
LINE
  8
LC-003-002-----0
 62
     1
  6
CONTINUOUS
 10
-96.469727
 20
128.709351
 11
-95.169724
 21
128.709351
  0
LINE
  8
LC-003-002-----0
 62
     1
  6
CONTINUOUS
 10
-96.469727
 20
110.709358
 11
-95.169724
 21
110.709358
  0
LINE
  8
LC-003-002-----0
 62
     1
  6
CONTINUOUS
 10
-116.769722
 20
110.709358
 11
-115.469727
 21
110.709358
  0
ARC
  8
LC-003-002-----0
 62
     1
  6
CONTINUOUS
 10
-119.969727
 20
128.709351
 40
0.500000
 50
90.000003
 51
180.000009
  0
ARC
  8
LC-003-002-----0
 62
     1
  6
CONTINUOUS
 10
-119.969727
 20
110.709358
 40
0.500000
 50
180.000009
 51
269.999997
  0
ARC
  8
LC-003-002-----0
 62
     1
  6
CONTINUOUS
 10
-91.969727
 20
110.709358
 40
0.500000
 50
269.999997
 51
0.000000
  0
ARC
  8
LC-003-002-----0
 62
     1
  6
CONTINUOUS
 10
-91.969727
 20
128.709351
 40
0.500000
 50
0.000000
 51
90.000003
  0
ENDSEC
  0
EOF
