  0
SECTION
  2
HEADER
  9
$LIMMIN
 10
461.090454
 20
148.404297
  9
$LIMMAX
 10
751.928894
 20
226.635117
  9
$EXTMIN
 10
461.090454
 20
148.404297
  9
$EXTMAX
 10
751.928894
 20
226.635117
  0
ENDSEC
  0
SECTION
  2
TABLES
  0
TABLE
  2
LTYPE
 70
     3
  0
LTYPE
  2
CONTINUOUS
 70
    64
  3
Ausgezogene Linie
 72
    65
 73
     0
 40
0.0
  0
LTYPE
  2
DASHED
 70
    64
  3
__ __ __ __ __ __ __ __ __ __ __ __ __ __ __
 72
    65
 73
     2
 40
0.75
 49
0.5
 49
-0.25
  0
LTYPE
  2
DASHDOT
 70
    64
  3
__ . __ . __ . __ . __ . __ . __ . __ . __ . __
 72
    65
 73
     4
 40
1.0
 49
0.5
 49
-0.25
 49
0.0
 49
-0.25
  0
ENDTAB
  0
TABLE
  2
LAYER
 70
     4
  0
LAYER
  2
LC-003-002-----0
 70
    64
 62
     7
  6
CONTINUOUS
  0
LAYER
  2
LC-004-006-----0
 70
    64
 62
     7
  6
CONTINUOUS
  0
LAYER
  2
LC-008-003-----0
 70
    64
 62
     7
  6
CONTINUOUS
  0
LAYER
  2
LC-006-012-----0
 70
    64
 62
     7
  6
CONTINUOUS
  0
ENDTAB
  0
TABLE
  2
STYLE
 70
     1
  0
STYLE
  2
TXT8
 70
    64
 40
0.0
 41
1.0
 50
0.0
 71
     0
 42
3.500000
  3
TXT8
  4

  0
ENDTAB
  0
ENDSEC
  0
SECTION
  2
BLOCKS
  0
ENDSEC
  0
SECTION
  2
ENTITIES
  0
LINE
  8
LC-004-006-----0
 62
     2
  6
DASHDOT
 10
461.090454
 20
188.216629
 11
616.263245
 21
188.216629
  0
LINE
  8
LC-003-002-----0
 62
     1
  6
CONTINUOUS
 10
502.720520
 20
219.216629
 11
511.070496
 21
219.216629
  0
LINE
  8
LC-003-002-----0
 62
     1
  6
CONTINUOUS
 10
502.720520
 20
157.216629
 11
511.070496
 21
157.216629
  0
LINE
  8
LC-003-002-----0
 62
     1
  6
CONTINUOUS
 10
501.220520
 20
217.716629
 11
501.220520
 21
158.716629
  0
LINE
  8
LC-003-002-----0
 62
     1
  6
CONTINUOUS
 10
581.220520
 20
217.716629
 11
581.220520
 21
158.716629
  0
LINE
  8
LC-003-002-----0
 62
     1
  6
CONTINUOUS
 10
471.021973
 20
208.216629
 11
501.220520
 21
208.216629
  0
LINE
  8
LC-003-002-----0
 62
     1
  6
CONTINUOUS
 10
468.536743
 20
168.216629
 11
501.220520
 21
168.216629
  0
LINE
  8
LC-006-012-----0
 62
     2
  6
CONTINUOUS
 10
468.536743
 20
168.216629
 11
471.153900
 21
179.592850
  0
LINE
  8
LC-006-012-----0
 62
     2
  6
CONTINUOUS
 10
471.153900
 20
179.592850
 11
467.878204
 21
195.812759
  0
LINE
  8
LC-006-012-----0
 62
     2
  6
CONTINUOUS
 10
467.878204
 20
195.812759
 11
471.021973
 21
208.216629
  0
LINE
  8
LC-006-012-----0
 62
     2
  6
CONTINUOUS
 10
608.805237
 20
168.216629
 11
611.873169
 21
178.458405
  0
LINE
  8
LC-006-012-----0
 62
     2
  6
CONTINUOUS
 10
611.873169
 20
178.458405
 11
607.938965
 21
197.764267
  0
LINE
  8
LC-006-012-----0
 62
     2
  6
CONTINUOUS
 10
607.938965
 20
197.764267
 11
609.353333
 21
208.216629
  0
LINE
  8
LC-008-003-----0
 62
     2
  6
DASHED
 10
501.220520
 20
208.216629
 11
581.220520
 21
208.216629
  0
LINE
  8
LC-003-002-----0
 62
     1
  6
CONTINUOUS
 10
581.220520
 20
208.216629
 11
609.353333
 21
208.216629
  0
LINE
  8
LC-008-003-----0
 62
     2
  6
DASHED
 10
501.220520
 20
168.216629
 11
581.220520
 21
168.216629
  0
LINE
  8
LC-003-002-----0
 62
     1
  6
CONTINUOUS
 10
581.220520
 20
168.216629
 11
608.805237
 21
168.216629
  0
LINE
  8
LC-003-002-----0
 62
     1
  6
CONTINUOUS
 10
569.220520
 20
157.216629
 11
569.220520
 21
219.216629
  0
LINE
  8
LC-003-002-----0
 62
     1
  6
CONTINUOUS
 10
571.370483
 20
157.216629
 11
571.370483
 21
219.216629
  0
LINE
  8
LC-003-002-----0
 62
     1
  6
CONTINUOUS
 10
569.220520
 20
217.716629
 11
571.370483
 21
217.716629
  0
LINE
  8
LC-003-002-----0
 62
     1
  6
CONTINUOUS
 10
569.220520
 20
158.716629
 11
571.370483
 21
158.716629
  0
LINE
  8
LC-003-002-----0
 62
     1
  6
CONTINUOUS
 10
571.370483
 20
219.216629
 11
579.720520
 21
219.216629
  0
LINE
  8
LC-003-002-----0
 62
     1
  6
CONTINUOUS
 10
571.370483
 20
157.216629
 11
579.720520
 21
157.216629
  0
LINE
  8
LC-003-002-----0
 62
     1
  6
CONTINUOUS
 10
513.220520
 20
157.216629
 11
513.220520
 21
219.216629
  0
LINE
  8
LC-003-002-----0
 62
     1
  6
CONTINUOUS
 10
511.070496
 20
157.216629
 11
511.070496
 21
219.216629
  0
LINE
  8
LC-003-002-----0
 62
     1
  6
CONTINUOUS
 10
513.220520
 20
217.716629
 11
511.070496
 21
217.716629
  0
LINE
  8
LC-003-002-----0
 62
     1
  6
CONTINUOUS
 10
513.220520
 20
158.716629
 11
511.070496
 21
158.716629
  0
LINE
  8
LC-003-002-----0
 62
     1
  6
CONTINUOUS
 10
513.220520
 20
219.216629
 11
569.220520
 21
219.216629
  0
LINE
  8
LC-003-002-----0
 62
     1
  6
CONTINUOUS
 10
513.220520
 20
157.216629
 11
569.220520
 21
157.216629
  0
ARC
  8
LC-003-002-----0
 62
     1
  6
CONTINUOUS
 10
502.720520
 20
217.716629
 40
1.500000
 50
90.000003
 51
180.000009
  0
ARC
  8
LC-003-002-----0
 62
     1
  6
CONTINUOUS
 10
502.720520
 20
158.716629
 40
1.500000
 50
180.000009
 51
269.999997
  0
ARC
  8
LC-003-002-----0
 62
     1
  6
CONTINUOUS
 10
579.720520
 20
158.716629
 40
1.500000
 50
269.999997
 51
0.000000
  0
ARC
  8
LC-003-002-----0
 62
     1
  6
CONTINUOUS
 10
579.720520
 20
217.716629
 40
1.500000
 50
0.000000
 51
90.000003
  0
LINE
  8
LC-004-006-----0
 62
     2
  6
DASHDOT
 10
675.617798
 20
188.216629
 11
751.928894
 21
188.216629
  0
LINE
  8
LC-004-006-----0
 62
     2
  6
DASHDOT
 10
713.223083
 20
226.635117
 11
713.223083
 21
148.404297
  0
CIRCLE
  8
LC-003-002-----0
 62
     1
  6
CONTINUOUS
 10
713.223083
 20
188.216629
 40
20.000000
  0
CIRCLE
  8
LC-003-002-----0
 62
     1
  6
CONTINUOUS
 10
713.223083
 20
188.216629
 40
31.000000
  0
CIRCLE
  8
LC-003-002-----0
 62
     1
  6
CONTINUOUS
 10
713.223083
 20
188.216629
 40
26.000000
  0
ENDSEC
  0
EOF
