  0
SECTION
  2
HEADER
  9
$LIMMIN
 10
413.546997
 20
295.316986
  9
$LIMMAX
 10
733.895447
 20
374.758148
  9
$EXTMIN
 10
413.546997
 20
295.316986
  9
$EXTMAX
 10
733.895447
 20
374.758148
  0
ENDSEC
  0
SECTION
  2
TABLES
  0
TABLE
  2
LTYPE
 70
     3
  0
LTYPE
  2
CONTINUOUS
 70
    64
  3
Ausgezogene Linie
 72
    65
 73
     0
 40
0.0
  0
LTYPE
  2
DASHED
 70
    64
  3
__ __ __ __ __ __ __ __ __ __ __ __ __ __ __
 72
    65
 73
     2
 40
0.75
 49
0.5
 49
-0.25
  0
LTYPE
  2
DASHDOT
 70
    64
  3
__ . __ . __ . __ . __ . __ . __ . __ . __ . __
 72
    65
 73
     4
 40
1.0
 49
0.5
 49
-0.25
 49
0.0
 49
-0.25
  0
ENDTAB
  0
TABLE
  2
LAYER
 70
     5
  0
LAYER
  2
LC-INFO-1-1-MM-A1-0
 70
    64
 62
     7
  6
CONTINUOUS
  0
LAYER
  2
LC-003-002-----0
 70
    64
 62
     7
  6
CONTINUOUS
  0
LAYER
  2
LC-005-002-RND-0
 70
    64
 62
     7
  6
CONTINUOUS
  0
LAYER
  2
LC-008-003-----0
 70
    64
 62
     7
  6
CONTINUOUS
  0
LAYER
  2
LC-004-005-----0
 70
    64
 62
     7
  6
CONTINUOUS
  0
ENDTAB
  0
TABLE
  2
STYLE
 70
     1
  0
STYLE
  2
TXT8
 70
    64
 40
0.0
 41
1.0
 50
0.0
 71
     0
 42
3.500000
  3
TXT8
  4

  0
ENDTAB
  0
ENDSEC
  0
SECTION
  2
BLOCKS
  0
ENDSEC
  0
SECTION
  2
ENTITIES
  0
LINE
  8
LC-004-005-----0
 62
     2
  6
CONTINUOUS
 10
521.099548
 20
351.393951
 11
522.561584
 21
352.855957
  0
LINE
  8
LC-004-005-----0
 62
     2
  6
CONTINUOUS
 10
516.856934
 20
351.393951
 11
522.561584
 21
357.098602
  0
LINE
  8
LC-004-005-----0
 62
     2
  6
CONTINUOUS
 10
512.614319
 20
351.393951
 11
518.864319
 21
357.643951
  0
LINE
  8
LC-004-005-----0
 62
     2
  6
CONTINUOUS
 10
508.371643
 20
351.393951
 11
514.621643
 21
357.643951
  0
LINE
  8
LC-004-005-----0
 62
     2
  6
CONTINUOUS
 10
504.128998
 20
351.393951
 11
510.378998
 21
357.643951
  0
LINE
  8
LC-004-005-----0
 62
     2
  6
CONTINUOUS
 10
499.886383
 20
351.393951
 11
506.136383
 21
357.643951
  0
LINE
  8
LC-004-005-----0
 62
     2
  6
CONTINUOUS
 10
495.643738
 20
351.393951
 11
501.893738
 21
357.643951
  0
LINE
  8
LC-004-005-----0
 62
     2
  6
CONTINUOUS
 10
491.401093
 20
351.393951
 11
497.651093
 21
357.643951
  0
LINE
  8
LC-004-005-----0
 62
     2
  6
CONTINUOUS
 10
488.041199
 20
352.276703
 11
493.408447
 21
357.643951
  0
LINE
  8
LC-004-005-----0
 62
     2
  6
CONTINUOUS
 10
482.915802
 20
351.393951
 11
489.165802
 21
357.643951
  0
LINE
  8
LC-004-005-----0
 62
     2
  6
CONTINUOUS
 10
478.673157
 20
351.393951
 11
484.923157
 21
357.643951
  0
LINE
  8
LC-004-005-----0
 62
     2
  6
CONTINUOUS
 10
474.430511
 20
351.393951
 11
480.680511
 21
357.643951
  0
LINE
  8
LC-004-005-----0
 62
     2
  6
CONTINUOUS
 10
470.187897
 20
351.393951
 11
476.437897
 21
357.643951
  0
LINE
  8
LC-004-005-----0
 62
     2
  6
CONTINUOUS
 10
465.945251
 20
351.393951
 11
472.195251
 21
357.643951
  0
LINE
  8
LC-004-005-----0
 62
     2
  6
CONTINUOUS
 10
461.702606
 20
351.393951
 11
467.952606
 21
357.643951
  0
LINE
  8
LC-004-005-----0
 62
     2
  6
CONTINUOUS
 10
457.459961
 20
351.393951
 11
463.709961
 21
357.643951
  0
LINE
  8
LC-004-005-----0
 62
     2
  6
CONTINUOUS
 10
453.397095
 20
351.573730
 11
459.467316
 21
357.643951
  0
LINE
  8
LC-004-005-----0
 62
     2
  6
CONTINUOUS
 10
449.876282
 20
352.295532
 11
455.224670
 21
357.643951
  0
LINE
  8
LC-004-005-----0
 62
     2
  6
CONTINUOUS
 10
444.732025
 20
351.393951
 11
450.982025
 21
357.643951
  0
LINE
  8
LC-004-005-----0
 62
     2
  6
CONTINUOUS
 10
442.061584
 20
352.966125
 11
446.739410
 21
357.643951
  0
LINE
  8
LC-004-005-----0
 62
     2
  6
CONTINUOUS
 10
442.066467
 20
357.213654
 11
442.491882
 21
357.639069
  0
LINE
  8
LC-004-005-----0
 62
     2
  6
CONTINUOUS
 10
606.702393
 20
352.143951
 11
607.061584
 21
352.503143
  0
LINE
  8
LC-004-005-----0
 62
     2
  6
CONTINUOUS
 10
601.709717
 20
351.393951
 11
607.061584
 21
356.745789
  0
LINE
  8
LC-004-005-----0
 62
     2
  6
CONTINUOUS
 10
597.739075
 20
351.665894
 11
605.717102
 21
359.643951
  0
LINE
  8
LC-004-005-----0
 62
     2
  6
CONTINUOUS
 10
593.224487
 20
351.393951
 11
601.474487
 21
359.643951
  0
LINE
  8
LC-004-005-----0
 62
     2
  6
CONTINUOUS
 10
588.981812
 20
351.393951
 11
595.231812
 21
357.643951
  0
LINE
  8
LC-004-005-----0
 62
     2
  6
CONTINUOUS
 10
597.061584
 20
359.473694
 11
599.231812
 21
361.643951
  0
LINE
  8
LC-004-005-----0
 62
     2
  6
CONTINUOUS
 10
584.739197
 20
351.393951
 11
590.989197
 21
357.643951
  0
LINE
  8
LC-004-005-----0
 62
     2
  6
CONTINUOUS
 10
580.496521
 20
351.393951
 11
586.746521
 21
357.643951
  0
LINE
  8
LC-004-005-----0
 62
     2
  6
CONTINUOUS
 10
576.253906
 20
351.393951
 11
582.503906
 21
357.643951
  0
LINE
  8
LC-004-005-----0
 62
     2
  6
CONTINUOUS
 10
572.011292
 20
351.393951
 11
578.261292
 21
357.643951
  0
LINE
  8
LC-004-005-----0
 62
     2
  6
CONTINUOUS
 10
567.768616
 20
351.393951
 11
574.018616
 21
357.643951
  0
LINE
  8
LC-004-005-----0
 62
     2
  6
CONTINUOUS
 10
563.663940
 20
351.531891
 11
569.776001
 21
357.643951
  0
LINE
  8
LC-004-005-----0
 62
     2
  6
CONTINUOUS
 10
559.283325
 20
351.393951
 11
565.533325
 21
357.643951
  0
LINE
  8
LC-004-005-----0
 62
     2
  6
CONTINUOUS
 10
555.040710
 20
351.393951
 11
561.290710
 21
357.643951
  0
LINE
  8
LC-004-005-----0
 62
     2
  6
CONTINUOUS
 10
550.798035
 20
351.393951
 11
557.048035
 21
357.643951
  0
LINE
  8
LC-004-005-----0
 62
     2
  6
CONTINUOUS
 10
546.555420
 20
351.393951
 11
552.805420
 21
357.643951
  0
LINE
  8
LC-004-005-----0
 62
     2
  6
CONTINUOUS
 10
542.312805
 20
351.393951
 11
548.562805
 21
357.643951
  0
LINE
  8
LC-004-005-----0
 62
     2
  6
CONTINUOUS
 10
538.070129
 20
351.393951
 11
544.320129
 21
357.643951
  0
LINE
  8
LC-004-005-----0
 62
     2
  6
CONTINUOUS
 10
533.827515
 20
351.393951
 11
540.077515
 21
357.643951
  0
LINE
  8
LC-004-005-----0
 62
     2
  6
CONTINUOUS
 10
529.584839
 20
351.393951
 11
535.834839
 21
357.643951
  0
LINE
  8
LC-004-005-----0
 62
     2
  6
CONTINUOUS
 10
526.561584
 20
352.613312
 11
531.592224
 21
357.643951
  0
LINE
  8
LC-004-005-----0
 62
     2
  6
CONTINUOUS
 10
526.561584
 20
356.855957
 11
527.349548
 21
357.643951
  0
LINE
  8
LC-004-005-----0
 62
     2
  6
CONTINUOUS
 10
603.989197
 20
370.643951
 11
605.489197
 21
372.143951
  0
LINE
  8
LC-004-005-----0
 62
     2
  6
CONTINUOUS
 10
597.746521
 20
368.643951
 11
601.246521
 21
372.143951
  0
LINE
  8
LC-004-005-----0
 62
     2
  6
CONTINUOUS
 10
630.211243
 20
347.393951
 11
630.211243
 21
347.393951
  0
LINE
  8
LC-004-005-----0
 62
     2
  6
CONTINUOUS
 10
630.211243
 20
347.393951
 11
629.010559
 21
345.421448
  0
LINE
  8
LC-004-005-----0
 62
     2
  6
CONTINUOUS
 10
629.010559
 20
345.421448
 11
628.411804
 21
342.745392
  0
LINE
  8
LC-004-005-----0
 62
     2
  6
CONTINUOUS
 10
628.411804
 20
342.745392
 11
628.852844
 21
340.430237
  0
LINE
  8
LC-004-005-----0
 62
     2
  6
CONTINUOUS
 10
628.852844
 20
340.430237
 11
629.412964
 21
338.184814
  0
LINE
  8
LC-004-005-----0
 62
     2
  6
CONTINUOUS
 10
629.412964
 20
338.184814
 11
629.171204
 21
335.718079
  0
LINE
  8
LC-004-005-----0
 62
     2
  6
CONTINUOUS
 10
629.171204
 20
335.718079
 11
629.171204
 21
335.718079
  0
LINE
  8
LC-004-005-----0
 62
     2
  6
CONTINUOUS
 10
629.171204
 20
335.718079
 11
628.849915
 21
334.385864
  0
LINE
  8
LC-004-005-----0
 62
     2
  6
CONTINUOUS
 10
628.849915
 20
334.385864
 11
628.849915
 21
334.385864
  0
LINE
  8
LC-004-005-----0
 62
     2
  6
CONTINUOUS
 10
628.849915
 20
334.385864
 11
630.938232
 21
333.901398
  0
LINE
  8
LC-004-005-----0
 62
     2
  6
CONTINUOUS
 10
630.938232
 20
333.901398
 11
631.882019
 21
332.956177
  0
LINE
  8
LC-004-005-----0
 62
     2
  6
CONTINUOUS
 10
631.882019
 20
332.956177
 11
631.231018
 21
331.078766
  0
LINE
  8
LC-004-005-----0
 62
     2
  6
CONTINUOUS
 10
631.231018
 20
331.078766
 11
630.027893
 21
328.630951
  0
LINE
  8
LC-004-005-----0
 62
     2
  6
CONTINUOUS
 10
630.027893
 20
328.630951
 11
629.315063
 21
325.974548
  0
LINE
  8
LC-004-005-----0
 62
     2
  6
CONTINUOUS
 10
629.315063
 20
325.974548
 11
630.135071
 21
323.471375
  0
LINE
  8
LC-004-005-----0
 62
     2
  6
CONTINUOUS
 10
630.135071
 20
323.471375
 11
630.135071
 21
323.471375
  0
LINE
  8
LC-004-005-----0
 62
     2
  6
CONTINUOUS
 10
630.135071
 20
323.471375
 11
630.693176
 21
322.893951
  0
LINE
  8
LC-004-005-----0
 62
     2
  6
CONTINUOUS
 10
415.795959
 20
347.393951
 11
415.795959
 21
347.393951
  0
LINE
  8
LC-004-005-----0
 62
     2
  6
CONTINUOUS
 10
415.795959
 20
347.393951
 11
416.438507
 21
344.936981
  0
LINE
  8
LC-004-005-----0
 62
     2
  6
CONTINUOUS
 10
416.438507
 20
344.936981
 11
416.715118
 21
342.395599
  0
LINE
  8
LC-004-005-----0
 62
     2
  6
CONTINUOUS
 10
416.715118
 20
342.395599
 11
416.543762
 21
340.260651
  0
LINE
  8
LC-004-005-----0
 62
     2
  6
CONTINUOUS
 10
416.543762
 20
340.260651
 11
416.137726
 21
338.377594
  0
LINE
  8
LC-004-005-----0
 62
     2
  6
CONTINUOUS
 10
416.137726
 20
338.377594
 11
415.710297
 21
336.591919
  0
LINE
  8
LC-004-005-----0
 62
     2
  6
CONTINUOUS
 10
415.710297
 20
336.591919
 11
415.474670
 21
334.749176
  0
LINE
  8
LC-004-005-----0
 62
     2
  6
CONTINUOUS
 10
415.474670
 20
334.749176
 11
415.474670
 21
334.749176
  0
LINE
  8
LC-004-005-----0
 62
     2
  6
CONTINUOUS
 10
415.474670
 20
334.749176
 11
415.474670
 21
333.295837
  0
LINE
  8
LC-004-005-----0
 62
     2
  6
CONTINUOUS
 10
415.474670
 20
333.295837
 11
415.353210
 21
330.640900
  0
LINE
  8
LC-004-005-----0
 62
     2
  6
CONTINUOUS
 10
415.353210
 20
330.640900
 11
415.073792
 21
327.747070
  0
LINE
  8
LC-004-005-----0
 62
     2
  6
CONTINUOUS
 10
415.073792
 20
327.747070
 11
414.742615
 21
325.090546
  0
LINE
  8
LC-004-005-----0
 62
     2
  6
CONTINUOUS
 10
414.742615
 20
325.090546
 11
414.466003
 21
323.147461
  0
LINE
  8
LC-004-005-----0
 62
     2
  6
CONTINUOUS
 10
414.466003
 20
323.147461
 11
414.350189
 21
322.393951
  0
LINE
  8
LC-003-002-----0
 62
     1
  6
CONTINUOUS
 10
607.061584
 20
370.643951
 11
600.261597
 21
370.643951
  0
LINE
  8
LC-005-002-RND-0
 62
     2
  6
DASHDOT
 10
634.376892
 20
335.143951
 11
413.546997
 21
335.143951
  0
LINE
  8
LC-003-002-----0
 62
     1
  6
CONTINUOUS
 10
607.061584
 20
299.143951
 11
607.061584
 21
335.143951
  0
LINE
  8
LC-003-002-----0
 62
     1
  6
CONTINUOUS
 10
596.061584
 20
357.643951
 11
442.561584
 21
357.643951
  0
LINE
  8
LC-003-002-----0
 62
     1
  6
CONTINUOUS
 10
596.061584
 20
312.643951
 11
442.561584
 21
312.643951
  0
LINE
  8
LC-003-002-----0
 62
     1
  6
CONTINUOUS
 10
597.061584
 20
371.143951
 11
597.061584
 21
357.343933
  0
LINE
  8
LC-003-002-----0
 62
     1
  6
CONTINUOUS
 10
606.061584
 20
372.143951
 11
598.061584
 21
372.143951
  0
LINE
  8
LC-003-002-----0
 62
     1
  6
CONTINUOUS
 10
598.061584
 20
298.143951
 11
606.061584
 21
298.143951
  0
LINE
  8
LC-003-002-----0
 62
     1
  6
CONTINUOUS
 10
442.061584
 20
357.143951
 11
442.061584
 21
347.393951
  0
LINE
  8
LC-005-002-RND-0
 62
     2
  6
DASHDOT
 10
524.561584
 20
366.192230
 11
524.561584
 21
349.462769
  0
LINE
  8
LC-003-002-----0
 62
     1
  6
CONTINUOUS
 10
521.661560
 20
359.043945
 11
521.661560
 21
357.643951
  0
LINE
  8
LC-003-002-----0
 62
     1
  6
CONTINUOUS
 10
527.461609
 20
359.043945
 11
527.461609
 21
357.643951
  0
LINE
  8
LC-003-002-----0
 62
     1
  6
CONTINUOUS
 10
523.361572
 20
359.043945
 11
523.361572
 21
357.643951
  0
LINE
  8
LC-003-002-----0
 62
     1
  6
CONTINUOUS
 10
527.461609
 20
359.043945
 11
521.661560
 21
359.043945
  0
LINE
  8
LC-003-002-----0
 62
     1
  6
CONTINUOUS
 10
525.761597
 20
359.043945
 11
525.761597
 21
357.643951
  0
LINE
  8
LC-003-002-----0
 62
     1
  6
CONTINUOUS
 10
522.561584
 20
360.043945
 11
522.561584
 21
359.043945
  0
LINE
  8
LC-003-002-----0
 62
     1
  6
CONTINUOUS
 10
526.561584
 20
360.043945
 11
526.561584
 21
359.043945
  0
LINE
  8
LC-003-002-----0
 62
     1
  6
CONTINUOUS
 10
527.061584
 20
360.043945
 11
522.061584
 21
360.043945
  0
LINE
  8
LC-003-002-----0
 62
     1
  6
CONTINUOUS
 10
522.061584
 20
361.043945
 11
522.061584
 21
360.043945
  0
LINE
  8
LC-003-002-----0
 62
     1
  6
CONTINUOUS
 10
527.061584
 20
361.043945
 11
527.061584
 21
360.043945
  0
LINE
  8
LC-003-002-----0
 62
     1
  6
CONTINUOUS
 10
527.061584
 20
361.043945
 11
522.061584
 21
361.043945
  0
LINE
  8
LC-003-002-----0
 62
     1
  6
CONTINUOUS
 10
526.061584
 20
363.043945
 11
523.061584
 21
363.043945
  0
ARC
  8
LC-003-002-----0
 62
     1
  6
CONTINUOUS
 10
524.561584
 20
361.043945
 40
2.338464
 50
58.788702
 51
121.211296
  0
LINE
  8
LC-003-002-----0
 62
     1
  6
CONTINUOUS
 10
526.061584
 20
363.043945
 11
527.061584
 21
361.043945
  0
LINE
  8
LC-003-002-----0
 62
     1
  6
CONTINUOUS
 10
523.061584
 20
363.043945
 11
522.061584
 21
361.043945
  0
LINE
  8
LC-005-002-RND-0
 62
     2
  6
DASHDOT
 10
653.668945
 20
335.143951
 11
733.895447
 21
335.143951
  0
LINE
  8
LC-005-002-RND-0
 62
     2
  6
DASHDOT
 10
693.698242
 20
295.316986
 11
693.698242
 21
374.758148
  0
LINE
  8
LC-003-002-----0
 62
     1
  6
CONTINUOUS
 10
442.061584
 20
335.143951
 11
442.061584
 21
313.143951
  0
LINE
  8
LC-003-002-----0
 62
     1
  6
CONTINUOUS
 10
414.350189
 20
322.393951
 11
442.061584
 21
322.393951
  0
LINE
  8
LC-005-002-RND-0
 62
     2
  6
DASHDOT
 10
608.887817
 20
365.143951
 11
595.713745
 21
365.143951
  0
LINE
  8
LC-005-002-RND-0
 62
     2
  6
DASHDOT
 10
608.887817
 20
305.143951
 11
595.713745
 21
305.143951
  0
LINE
  8
LC-003-002-----0
 62
     1
  6
CONTINUOUS
 10
607.061584
 20
359.643951
 11
600.261597
 21
359.643951
  0
LINE
  8
LC-003-002-----0
 62
     1
  6
CONTINUOUS
 10
600.261597
 20
368.643951
 11
597.061584
 21
368.643951
  0
LINE
  8
LC-003-002-----0
 62
     1
  6
CONTINUOUS
 10
600.261597
 20
361.643951
 11
597.061584
 21
361.643951
  0
LINE
  8
LC-003-002-----0
 62
     1
  6
CONTINUOUS
 10
600.261597
 20
359.643951
 11
600.261597
 21
370.643951
  0
LINE
  8
LC-003-002-----0
 62
     1
  6
CONTINUOUS
 10
522.561584
 20
357.643951
 11
522.561584
 21
351.393951
  0
LINE
  8
LC-003-002-----0
 62
     1
  6
CONTINUOUS
 10
526.561584
 20
357.643951
 11
526.561584
 21
351.393951
  0
LINE
  8
LC-008-003-----0
 62
     2
  6
DASHED
 10
607.061584
 20
310.643951
 11
600.261597
 21
310.643951
  0
CIRCLE
  8
LC-003-002-----0
 62
     1
  6
CONTINUOUS
 10
723.698242
 20
335.143951
 40
3.500000
  0
CIRCLE
  8
LC-008-003-----0
 62
     2
  6
DASHED
 10
693.698242
 20
305.143951
 40
5.500000
  0
CIRCLE
  8
LC-003-002-----0
 62
     1
  6
CONTINUOUS
 10
693.698242
 20
365.143951
 40
3.500000
  0
LINE
  8
LC-003-002-----0
 62
     1
  6
CONTINUOUS
 10
607.061584
 20
347.393951
 11
630.211243
 21
347.393951
  0
CIRCLE
  8
LC-003-002-----0
 62
     1
  6
CONTINUOUS
 10
693.698242
 20
305.143951
 40
3.500000
  0
CIRCLE
  8
LC-008-003-----0
 62
     2
  6
DASHED
 10
723.698242
 20
335.143951
 40
5.500000
  0
LINE
  8
LC-003-002-----0
 62
     1
  6
CONTINUOUS
 10
596.061584
 20
357.643951
 11
596.061584
 21
357.343933
  0
LINE
  8
LC-003-002-----0
 62
     1
  6
CONTINUOUS
 10
597.061584
 20
357.343933
 11
596.061584
 21
357.343933
  0
LINE
  8
LC-003-002-----0
 62
     1
  6
CONTINUOUS
 10
597.061584
 20
312.943939
 11
596.061584
 21
312.943939
  0
ARC
  8
LC-003-002-----0
 62
     1
  6
CONTINUOUS
 10
442.561584
 20
313.143951
 40
0.500000
 50
180.000009
 51
269.999997
  0
ARC
  8
LC-003-002-----0
 62
     1
  6
CONTINUOUS
 10
442.561584
 20
357.143951
 40
0.500000
 50
90.000003
 51
180.000009
  0
LINE
  8
LC-003-002-----0
 62
     1
  6
CONTINUOUS
 10
597.061584
 20
371.143951
 11
598.061584
 21
372.143951
  0
LINE
  8
LC-003-002-----0
 62
     1
  6
CONTINUOUS
 10
597.061584
 20
299.143951
 11
598.061584
 21
298.143951
  0
LINE
  8
LC-003-002-----0
 62
     1
  6
CONTINUOUS
 10
598.061584
 20
335.143951
 11
598.061584
 21
298.143951
  0
LINE
  8
LC-003-002-----0
 62
     1
  6
CONTINUOUS
 10
607.061584
 20
371.143951
 11
606.061584
 21
372.143951
  0
LINE
  8
LC-003-002-----0
 62
     1
  6
CONTINUOUS
 10
606.061584
 20
298.143951
 11
607.061584
 21
299.143951
  0
LINE
  8
LC-003-002-----0
 62
     1
  6
CONTINUOUS
 10
606.061584
 20
335.143951
 11
606.061584
 21
298.143951
  0
LINE
  8
LC-003-002-----0
 62
     1
  6
CONTINUOUS
 10
707.840332
 20
352.821625
 11
711.375916
 21
349.286072
  0
LINE
  8
LC-003-002-----0
 62
     1
  6
CONTINUOUS
 10
710.598083
 20
352.043793
 11
709.608093
 21
351.053833
  0
LINE
  8
LC-003-002-----0
 62
     1
  6
CONTINUOUS
 10
712.365845
 20
350.276031
 11
708.830322
 21
353.811554
  0
LINE
  8
LC-003-002-----0
 62
     1
  6
CONTINUOUS
 10
709.890991
 20
354.165131
 11
709.183838
 21
353.458008
  0
LINE
  8
LC-003-002-----0
 62
     1
  6
CONTINUOUS
 10
712.719360
 20
351.336700
 11
712.012268
 21
350.629578
  0
LINE
  8
LC-003-002-----0
 62
     1
  6
CONTINUOUS
 10
713.072937
 20
350.983124
 11
709.537415
 21
354.518677
  0
LINE
  8
LC-003-002-----0
 62
     1
  6
CONTINUOUS
 10
710.244507
 20
355.225769
 11
709.537415
 21
354.518677
  0
LINE
  8
LC-003-002-----0
 62
     1
  6
CONTINUOUS
 10
713.780029
 20
351.690247
 11
713.072937
 21
350.983124
  0
LINE
  8
LC-003-002-----0
 62
     1
  6
CONTINUOUS
 10
713.780029
 20
351.690247
 11
710.244507
 21
355.225769
  0
LINE
  8
LC-003-002-----0
 62
     1
  6
CONTINUOUS
 10
714.487183
 20
353.811554
 11
712.365845
 21
355.932892
  0
ARC
  8
LC-003-002-----0
 62
     1
  6
CONTINUOUS
 10
712.012268
 20
353.458008
 40
2.338464
 50
13.788703
 51
76.211299
  0
LINE
  8
LC-003-002-----0
 62
     1
  6
CONTINUOUS
 10
714.487183
 20
353.811554
 11
713.780029
 21
351.690247
  0
LINE
  8
LC-003-002-----0
 62
     1
  6
CONTINUOUS
 10
712.365845
 20
355.932892
 11
710.244507
 21
355.225769
  0
LINE
  8
LC-003-002-----0
 62
     1
  6
CONTINUOUS
 10
711.375916
 20
349.286072
 11
712.365845
 21
350.276031
  0
LINE
  8
LC-003-002-----0
 62
     1
  6
CONTINUOUS
 10
707.840332
 20
352.821625
 11
708.830322
 21
353.811554
  0
LINE
  8
LC-008-003-----0
 62
     2
  6
DASHED
 10
442.061584
 20
322.393951
 11
607.061584
 21
322.393951
  0
LINE
  8
LC-003-002-----0
 62
     1
  6
CONTINUOUS
 10
442.061584
 20
347.393951
 11
415.795959
 21
347.393951
  0
LINE
  8
LC-003-002-----0
 62
     1
  6
CONTINUOUS
 10
607.061584
 20
322.393951
 11
630.693176
 21
322.393951
  0
CIRCLE
  8
LC-008-003-----0
 62
     2
  6
DASHED
 10
663.698242
 20
335.143951
 40
5.500000
  0
LINE
  8
LC-008-003-----0
 62
     2
  6
DASHED
 10
600.261597
 20
308.643951
 11
597.061584
 21
308.643951
  0
LINE
  8
LC-008-003-----0
 62
     2
  6
DASHED
 10
600.261597
 20
310.643951
 11
600.261597
 21
299.643951
  0
LINE
  8
LC-008-003-----0
 62
     2
  6
DASHED
 10
600.261597
 20
301.643951
 11
597.061584
 21
301.643951
  0
LINE
  8
LC-008-003-----0
 62
     2
  6
DASHED
 10
607.061584
 20
299.643951
 11
600.261597
 21
299.643951
  0
CIRCLE
  8
LC-003-002-----0
 62
     1
  6
CONTINUOUS
 10
663.698242
 20
335.143951
 40
3.500000
  0
LINE
  8
LC-005-002-RND-0
 62
     2
  6
DASHDOT
 10
707.107849
 20
348.553558
 11
715.847351
 21
357.293121
  0
CIRCLE
  8
LC-005-002-RND-0
 62
     2
  6
DASHDOT
 10
693.698242
 20
335.143951
 40
30.000000
  0
CIRCLE
  8
LC-003-002-----0
 62
     1
  6
CONTINUOUS
 10
693.698242
 20
335.143951
 40
36.000000
  0
CIRCLE
  8
LC-003-002-----0
 62
     1
  6
CONTINUOUS
 10
693.698242
 20
335.143951
 40
37.000000
  0
CIRCLE
  8
LC-008-003-----0
 62
     2
  6
DASHED
 10
693.698242
 20
365.143951
 40
5.500000
  0
CIRCLE
  8
LC-003-002-----0
 62
     1
  6
CONTINUOUS
 10
693.698242
 20
335.143951
 40
12.250000
  0
CIRCLE
  8
LC-003-002-----0
 62
     1
  6
CONTINUOUS
 10
693.698242
 20
335.143951
 40
22.500000
  0
LINE
  8
LC-003-002-----0
 62
     1
  6
CONTINUOUS
 10
596.061584
 20
335.143951
 11
596.061584
 21
312.643951
  0
LINE
  8
LC-003-002-----0
 62
     1
  6
CONTINUOUS
 10
597.061584
 20
335.143951
 11
597.061584
 21
299.143951
  0
LINE
  8
LC-003-002-----0
 62
     1
  6
CONTINUOUS
 10
607.061584
 20
347.393951
 11
607.061584
 21
371.143951
  0
LINE
  8
LC-003-002-----0
 62
     1
  6
CONTINUOUS
 10
442.061584
 20
356.643951
 11
442.061584
 21
347.643951
  0
LINE
  8
LC-003-002-----0
 62
     1
  6
CONTINUOUS
 10
607.061584
 20
356.643951
 11
607.061584
 21
347.643951
  0
LINE
  8
LC-003-002-----0
 62
     1
  6
CONTINUOUS
 10
442.061584
 20
347.393951
 11
607.061584
 21
347.393951
  0
LINE
  8
LC-003-002-----0
 62
     1
  6
CONTINUOUS
 10
554.561584
 20
351.393951
 11
554.561584
 21
347.393951
  0
LINE
  8
LC-003-002-----0
 62
     1
  6
CONTINUOUS
 10
489.098572
 20
351.393951
 11
560.024597
 21
351.393951
  0
LINE
  8
LC-003-002-----0
 62
     1
  6
CONTINUOUS
 10
605.561584
 20
352.893951
 11
605.561584
 21
347.393951
  0
LINE
  8
LC-003-002-----0
 62
     1
  6
CONTINUOUS
 10
605.061584
 20
352.893951
 11
605.061584
 21
347.393951
  0
CIRCLE
  8
LC-003-002-----0
 62
     1
  6
CONTINUOUS
 10
580.811584
 20
349.393951
 40
2.000000
  0
CIRCLE
  8
LC-003-002-----0
 62
     1
  6
CONTINUOUS
 10
584.811584
 20
349.393951
 40
2.000000
  0
CIRCLE
  8
LC-003-002-----0
 62
     1
  6
CONTINUOUS
 10
588.811584
 20
349.393951
 40
2.000000
  0
CIRCLE
  8
LC-003-002-----0
 62
     1
  6
CONTINUOUS
 10
592.811584
 20
349.393951
 40
2.000000
  0
CIRCLE
  8
LC-003-002-----0
 62
     1
  6
CONTINUOUS
 10
596.811584
 20
349.893951
 40
2.000000
  0
LINE
  8
LC-003-002-----0
 62
     1
  6
CONTINUOUS
 10
601.598572
 20
351.393951
 11
604.561584
 21
351.393951
  0
ARC
  8
LC-003-002-----0
 62
     1
  6
CONTINUOUS
 10
599.866516
 20
350.393951
 40
2.000000
 50
228.590384
 51
149.999997
  0
CIRCLE
  8
LC-003-002-----0
 62
     1
  6
CONTINUOUS
 10
576.811584
 20
349.393951
 40
2.000000
  0
CIRCLE
  8
LC-003-002-----0
 62
     1
  6
CONTINUOUS
 10
572.811584
 20
349.393951
 40
2.000000
  0
CIRCLE
  8
LC-003-002-----0
 62
     1
  6
CONTINUOUS
 10
568.811584
 20
349.393951
 40
2.000000
  0
CIRCLE
  8
LC-003-002-----0
 62
     1
  6
CONTINUOUS
 10
564.811584
 20
349.893951
 40
2.000000
  0
ARC
  8
LC-003-002-----0
 62
     1
  6
CONTINUOUS
 10
561.756653
 20
350.393951
 40
2.000000
 50
30.000001
 51
311.409621
  0
LINE
  8
LC-003-002-----0
 62
     1
  6
CONTINUOUS
 10
566.134460
 20
351.393951
 11
595.488708
 21
351.393951
  0
LINE
  8
LC-003-002-----0
 62
     1
  6
CONTINUOUS
 10
604.561584
 20
352.143951
 11
604.561584
 21
347.393951
  0
LINE
  8
LC-003-002-----0
 62
     1
  6
CONTINUOUS
 10
604.561584
 20
352.143951
 11
605.061584
 21
352.143951
  0
LINE
  8
LC-003-002-----0
 62
     1
  6
CONTINUOUS
 10
605.061584
 20
352.893951
 11
605.561584
 21
352.893951
  0
LINE
  8
LC-003-002-----0
 62
     1
  6
CONTINUOUS
 10
605.561584
 20
352.143951
 11
607.061584
 21
352.143951
  0
LINE
  8
LC-003-002-----0
 62
     1
  6
CONTINUOUS
 10
494.561584
 20
351.393951
 11
494.561584
 21
347.393951
  0
LINE
  8
LC-003-002-----0
 62
     1
  6
CONTINUOUS
 10
443.561584
 20
352.893951
 11
443.561584
 21
347.393951
  0
LINE
  8
LC-003-002-----0
 62
     1
  6
CONTINUOUS
 10
444.061584
 20
352.893951
 11
444.061584
 21
347.393951
  0
CIRCLE
  8
LC-003-002-----0
 62
     1
  6
CONTINUOUS
 10
468.311584
 20
349.393951
 40
2.000000
  0
CIRCLE
  8
LC-003-002-----0
 62
     1
  6
CONTINUOUS
 10
464.311584
 20
349.393951
 40
2.000000
  0
CIRCLE
  8
LC-003-002-----0
 62
     1
  6
CONTINUOUS
 10
460.311584
 20
349.393951
 40
2.000000
  0
CIRCLE
  8
LC-003-002-----0
 62
     1
  6
CONTINUOUS
 10
456.311584
 20
349.393951
 40
2.000000
  0
CIRCLE
  8
LC-003-002-----0
 62
     1
  6
CONTINUOUS
 10
452.311584
 20
349.893951
 40
2.000000
  0
LINE
  8
LC-003-002-----0
 62
     1
  6
CONTINUOUS
 10
447.524597
 20
351.393951
 11
444.561584
 21
351.393951
  0
ARC
  8
LC-003-002-----0
 62
     1
  6
CONTINUOUS
 10
449.256653
 20
350.393951
 40
2.000000
 50
30.000001
 51
311.409621
  0
CIRCLE
  8
LC-003-002-----0
 62
     1
  6
CONTINUOUS
 10
472.311584
 20
349.393951
 40
2.000000
  0
CIRCLE
  8
LC-003-002-----0
 62
     1
  6
CONTINUOUS
 10
476.311584
 20
349.393951
 40
2.000000
  0
CIRCLE
  8
LC-003-002-----0
 62
     1
  6
CONTINUOUS
 10
480.311584
 20
349.393951
 40
2.000000
  0
CIRCLE
  8
LC-003-002-----0
 62
     1
  6
CONTINUOUS
 10
484.311584
 20
349.893951
 40
2.000000
  0
ARC
  8
LC-003-002-----0
 62
     1
  6
CONTINUOUS
 10
487.366516
 20
350.393951
 40
2.000000
 50
228.590384
 51
149.999997
  0
LINE
  8
LC-003-002-----0
 62
     1
  6
CONTINUOUS
 10
482.988708
 20
351.393951
 11
453.634460
 21
351.393951
  0
LINE
  8
LC-003-002-----0
 62
     1
  6
CONTINUOUS
 10
444.561584
 20
352.143951
 11
444.561584
 21
347.393951
  0
LINE
  8
LC-003-002-----0
 62
     1
  6
CONTINUOUS
 10
444.561584
 20
352.143951
 11
444.061584
 21
352.143951
  0
LINE
  8
LC-003-002-----0
 62
     1
  6
CONTINUOUS
 10
444.061584
 20
352.893951
 11
443.561584
 21
352.893951
  0
LINE
  8
LC-003-002-----0
 62
     1
  6
CONTINUOUS
 10
443.561584
 20
352.143951
 11
442.061584
 21
352.143951
  0
ENDSEC
  0
EOF
