  0
SECTION
  2
HEADER
  9
$LIMMIN
 10
460.546967
 20
457.857880
  9
$LIMMAX
 10
718.720154
 20
525.779663
  9
$EXTMIN
 10
460.546967
 20
457.857880
  9
$EXTMAX
 10
718.720154
 20
525.779663
  0
ENDSEC
  0
SECTION
  2
TABLES
  0
TABLE
  2
LTYPE
 70
     3
  0
LTYPE
  2
CONTINUOUS
 70
    64
  3
Ausgezogene Linie
 72
    65
 73
     0
 40
0.0
  0
LTYPE
  2
DASHED
 70
    64
  3
__ __ __ __ __ __ __ __ __ __ __ __ __ __ __
 72
    65
 73
     2
 40
0.75
 49
0.5
 49
-0.25
  0
LTYPE
  2
DASHDOT
 70
    64
  3
__ . __ . __ . __ . __ . __ . __ . __ . __ . __
 72
    65
 73
     4
 40
1.0
 49
0.5
 49
-0.25
 49
0.0
 49
-0.25
  0
ENDTAB
  0
TABLE
  2
LAYER
 70
     5
  0
LAYER
  2
LC-INFO-1-1-MM-A1-0
 70
    64
 62
     7
  6
CONTINUOUS
  0
LAYER
  2
LC-003-002-----0
 70
    64
 62
     7
  6
CONTINUOUS
  0
LAYER
  2
LC-005-002-RND-0
 70
    64
 62
     7
  6
CONTINUOUS
  0
LAYER
  2
LC-008-003-----0
 70
    64
 62
     7
  6
CONTINUOUS
  0
LAYER
  2
LC-004-005-----0
 70
    64
 62
     7
  6
CONTINUOUS
  0
ENDTAB
  0
TABLE
  2
STYLE
 70
     1
  0
STYLE
  2
TXT8
 70
    64
 40
0.0
 41
1.0
 50
0.0
 71
     0
 42
3.500000
  3
TXT8
  4

  0
ENDTAB
  0
ENDSEC
  0
SECTION
  2
BLOCKS
  0
ENDSEC
  0
SECTION
  2
ENTITIES
  0
LINE
  8
LC-004-005-----0
 62
     2
  6
CONTINUOUS
 10
600.350769
 20
519.740601
 11
601.361572
 21
520.751404
  0
LINE
  8
LC-004-005-----0
 62
     2
  6
CONTINUOUS
 10
602.450806
 20
521.840637
 11
602.950806
 21
522.340637
  0
LINE
  8
LC-004-005-----0
 62
     2
  6
CONTINUOUS
 10
542.524414
 20
504.340637
 11
546.061584
 21
507.877808
  0
LINE
  8
LC-004-005-----0
 62
     2
  6
CONTINUOUS
 10
538.281738
 20
504.340637
 11
545.281738
 21
511.340637
  0
LINE
  8
LC-004-005-----0
 62
     2
  6
CONTINUOUS
 10
534.039124
 20
504.340637
 11
541.039124
 21
511.340637
  0
LINE
  8
LC-004-005-----0
 62
     2
  6
CONTINUOUS
 10
529.796448
 20
504.340637
 11
536.796448
 21
511.340637
  0
LINE
  8
LC-004-005-----0
 62
     2
  6
CONTINUOUS
 10
525.553833
 20
504.340637
 11
532.553833
 21
511.340637
  0
LINE
  8
LC-004-005-----0
 62
     2
  6
CONTINUOUS
 10
521.432495
 20
504.461914
 11
528.311218
 21
511.340637
  0
LINE
  8
LC-004-005-----0
 62
     2
  6
CONTINUOUS
 10
517.068542
 20
504.340637
 11
524.068542
 21
511.340637
  0
LINE
  8
LC-004-005-----0
 62
     2
  6
CONTINUOUS
 10
512.825928
 20
504.340637
 11
519.825928
 21
511.340637
  0
LINE
  8
LC-004-005-----0
 62
     2
  6
CONTINUOUS
 10
508.583252
 20
504.340637
 11
515.583252
 21
511.340637
  0
LINE
  8
LC-004-005-----0
 62
     2
  6
CONTINUOUS
 10
504.340637
 20
504.340637
 11
511.340637
 21
511.340637
  0
LINE
  8
LC-004-005-----0
 62
     2
  6
CONTINUOUS
 10
500.097992
 20
504.340637
 11
507.097992
 21
511.340637
  0
LINE
  8
LC-004-005-----0
 62
     2
  6
CONTINUOUS
 10
496.214691
 20
504.699951
 11
502.855347
 21
511.340637
  0
LINE
  8
LC-004-005-----0
 62
     2
  6
CONTINUOUS
 10
491.612701
 20
504.340637
 11
498.612701
 21
511.340637
  0
LINE
  8
LC-004-005-----0
 62
     2
  6
CONTINUOUS
 10
489.061584
 20
506.032135
 11
494.370056
 21
511.340637
  0
LINE
  8
LC-004-005-----0
 62
     2
  6
CONTINUOUS
 10
489.061584
 20
510.274780
 11
490.127411
 21
511.340637
  0
LINE
  8
LC-004-005-----0
 62
     2
  6
CONTINUOUS
 10
606.914001
 20
505.090637
 11
607.061584
 21
505.238220
  0
LINE
  8
LC-004-005-----0
 62
     2
  6
CONTINUOUS
 10
602.568237
 20
504.987518
 11
607.061584
 21
509.480835
  0
LINE
  8
LC-004-005-----0
 62
     2
  6
CONTINUOUS
 10
597.678711
 20
504.340637
 11
605.178711
 21
511.840637
  0
LINE
  8
LC-004-005-----0
 62
     2
  6
CONTINUOUS
 10
593.436096
 20
504.340637
 11
601.361572
 21
512.266113
  0
LINE
  8
LC-004-005-----0
 62
     2
  6
CONTINUOUS
 10
589.193420
 20
504.340637
 11
596.193420
 21
511.340637
  0
LINE
  8
LC-004-005-----0
 62
     2
  6
CONTINUOUS
 10
584.950806
 20
504.340637
 11
591.950806
 21
511.340637
  0
LINE
  8
LC-004-005-----0
 62
     2
  6
CONTINUOUS
 10
580.708130
 20
504.340637
 11
587.708130
 21
511.340637
  0
LINE
  8
LC-004-005-----0
 62
     2
  6
CONTINUOUS
 10
576.519653
 20
504.394775
 11
583.465515
 21
511.340637
  0
LINE
  8
LC-004-005-----0
 62
     2
  6
CONTINUOUS
 10
573.008606
 20
505.126343
 11
579.222900
 21
511.340637
  0
LINE
  8
LC-004-005-----0
 62
     2
  6
CONTINUOUS
 10
567.980225
 20
504.340637
 11
574.980225
 21
511.340637
  0
LINE
  8
LC-004-005-----0
 62
     2
  6
CONTINUOUS
 10
563.737610
 20
504.340637
 11
570.737610
 21
511.340637
  0
LINE
  8
LC-004-005-----0
 62
     2
  6
CONTINUOUS
 10
559.494934
 20
504.340637
 11
566.494934
 21
511.340637
  0
LINE
  8
LC-004-005-----0
 62
     2
  6
CONTINUOUS
 10
555.252319
 20
504.340637
 11
562.252319
 21
511.340637
  0
LINE
  8
LC-004-005-----0
 62
     2
  6
CONTINUOUS
 10
551.009644
 20
504.340637
 11
558.009644
 21
511.340637
  0
LINE
  8
LC-004-005-----0
 62
     2
  6
CONTINUOUS
 10
550.061584
 20
507.635193
 11
553.767029
 21
511.340637
  0
LINE
  8
LC-004-005-----0
 62
     2
  6
CONTINUOUS
 10
630.211243
 20
501.340637
 11
630.211243
 21
501.340637
  0
LINE
  8
LC-004-005-----0
 62
     2
  6
CONTINUOUS
 10
630.211243
 20
501.340637
 11
629.010559
 21
499.368134
  0
LINE
  8
LC-004-005-----0
 62
     2
  6
CONTINUOUS
 10
629.010559
 20
499.368134
 11
628.657654
 21
496.713806
  0
LINE
  8
LC-004-005-----0
 62
     2
  6
CONTINUOUS
 10
628.657654
 20
496.713806
 11
629.241272
 21
494.396210
  0
LINE
  8
LC-004-005-----0
 62
     2
  6
CONTINUOUS
 10
629.241272
 20
494.396210
 11
629.171204
 21
491.914764
  0
LINE
  8
LC-004-005-----0
 62
     2
  6
CONTINUOUS
 10
629.171204
 20
491.914764
 11
629.171204
 21
491.914764
  0
LINE
  8
LC-004-005-----0
 62
     2
  6
CONTINUOUS
 10
629.171204
 20
491.914764
 11
629.171204
 21
491.914764
  0
LINE
  8
LC-004-005-----0
 62
     2
  6
CONTINUOUS
 10
629.171204
 20
491.914764
 11
628.849915
 21
490.582520
  0
LINE
  8
LC-004-005-----0
 62
     2
  6
CONTINUOUS
 10
628.849915
 20
490.582520
 11
628.849915
 21
490.582520
  0
LINE
  8
LC-004-005-----0
 62
     2
  6
CONTINUOUS
 10
628.849915
 20
490.582520
 11
630.938232
 21
490.098083
  0
LINE
  8
LC-004-005-----0
 62
     2
  6
CONTINUOUS
 10
630.938232
 20
490.098083
 11
631.278259
 21
488.445374
  0
LINE
  8
LC-004-005-----0
 62
     2
  6
CONTINUOUS
 10
631.278259
 20
488.445374
 11
629.827820
 21
485.405762
  0
LINE
  8
LC-004-005-----0
 62
     2
  6
CONTINUOUS
 10
629.827820
 20
485.405762
 11
630.135071
 21
482.168060
  0
LINE
  8
LC-004-005-----0
 62
     2
  6
CONTINUOUS
 10
630.135071
 20
482.168060
 11
630.135071
 21
482.168060
  0
LINE
  8
LC-004-005-----0
 62
     2
  6
CONTINUOUS
 10
630.135071
 20
482.168060
 11
630.135071
 21
482.168060
  0
LINE
  8
LC-004-005-----0
 62
     2
  6
CONTINUOUS
 10
630.135071
 20
482.168060
 11
630.693176
 21
481.590637
  0
LINE
  8
LC-004-005-----0
 62
     2
  6
CONTINUOUS
 10
462.795959
 20
501.340637
 11
462.795959
 21
501.340637
  0
LINE
  8
LC-004-005-----0
 62
     2
  6
CONTINUOUS
 10
462.795959
 20
501.340637
 11
463.438507
 21
498.883667
  0
LINE
  8
LC-004-005-----0
 62
     2
  6
CONTINUOUS
 10
463.438507
 20
498.883667
 11
463.508667
 21
495.777710
  0
LINE
  8
LC-004-005-----0
 62
     2
  6
CONTINUOUS
 10
463.508667
 20
495.777710
 11
462.921387
 21
493.303986
  0
LINE
  8
LC-004-005-----0
 62
     2
  6
CONTINUOUS
 10
462.921387
 20
493.303986
 11
462.474670
 21
490.945862
  0
LINE
  8
LC-004-005-----0
 62
     2
  6
CONTINUOUS
 10
462.474670
 20
490.945862
 11
462.474670
 21
490.945862
  0
LINE
  8
LC-004-005-----0
 62
     2
  6
CONTINUOUS
 10
462.474670
 20
490.945862
 11
462.474670
 21
490.945862
  0
LINE
  8
LC-004-005-----0
 62
     2
  6
CONTINUOUS
 10
462.474670
 20
490.945862
 11
462.474670
 21
489.492523
  0
LINE
  8
LC-004-005-----0
 62
     2
  6
CONTINUOUS
 10
462.474670
 20
489.492523
 11
462.283752
 21
486.941589
  0
LINE
  8
LC-004-005-----0
 62
     2
  6
CONTINUOUS
 10
462.283752
 20
486.941589
 11
461.898895
 21
484.281281
  0
LINE
  8
LC-004-005-----0
 62
     2
  6
CONTINUOUS
 10
461.898895
 20
484.281281
 11
461.520813
 21
482.188629
  0
LINE
  8
LC-004-005-----0
 62
     2
  6
CONTINUOUS
 10
461.520813
 20
482.188629
 11
461.350189
 21
481.340637
  0
LINE
  8
LC-003-002-----0
 62
     1
  6
CONTINUOUS
 10
489.061584
 20
510.840637
 11
489.061584
 21
501.340637
  0
LINE
  8
LC-003-002-----0
 62
     1
  6
CONTINUOUS
 10
606.561584
 20
521.840637
 11
601.361572
 21
521.840637
  0
LINE
  8
LC-003-002-----0
 62
     1
  6
CONTINUOUS
 10
489.061584
 20
491.340637
 11
489.061584
 21
471.840637
  0
LINE
  8
LC-003-002-----0
 62
     1
  6
CONTINUOUS
 10
598.061584
 20
511.340637
 11
598.061584
 21
511.040619
  0
LINE
  8
LC-005-002-RND-0
 62
     2
  6
DASHDOT
 10
632.062744
 20
491.340637
 11
460.546967
 21
491.340637
  0
LINE
  8
LC-003-002-----0
 62
     1
  6
CONTINUOUS
 10
607.061584
 20
461.340637
 11
607.061584
 21
491.340637
  0
LINE
  8
LC-003-002-----0
 62
     1
  6
CONTINUOUS
 10
598.061584
 20
511.340637
 11
489.561584
 21
511.340637
  0
LINE
  8
LC-003-002-----0
 62
     1
  6
CONTINUOUS
 10
598.061584
 20
471.340637
 11
489.561584
 21
471.340637
  0
LINE
  8
LC-003-002-----0
 62
     1
  6
CONTINUOUS
 10
599.061584
 20
521.340637
 11
599.061584
 21
511.040619
  0
LINE
  8
LC-003-002-----0
 62
     1
  6
CONTINUOUS
 10
606.061584
 20
522.340637
 11
600.061584
 21
522.340637
  0
LINE
  8
LC-003-002-----0
 62
     1
  6
CONTINUOUS
 10
600.061584
 20
460.340637
 11
606.061584
 21
460.340637
  0
LINE
  8
LC-003-002-----0
 62
     1
  6
CONTINUOUS
 10
598.061584
 20
491.340637
 11
598.061584
 21
471.340637
  0
LINE
  8
LC-005-002-RND-0
 62
     2
  6
DASHDOT
 10
548.061584
 20
518.888916
 11
548.061584
 21
502.836151
  0
LINE
  8
LC-003-002-----0
 62
     1
  6
CONTINUOUS
 10
545.161560
 20
512.740601
 11
545.161560
 21
511.340668
  0
LINE
  8
LC-003-002-----0
 62
     1
  6
CONTINUOUS
 10
550.961609
 20
512.740601
 11
550.961609
 21
511.340668
  0
LINE
  8
LC-003-002-----0
 62
     1
  6
CONTINUOUS
 10
546.861572
 20
512.740601
 11
546.861572
 21
511.340668
  0
LINE
  8
LC-003-002-----0
 62
     1
  6
CONTINUOUS
 10
550.961609
 20
512.740601
 11
545.161560
 21
512.740601
  0
LINE
  8
LC-003-002-----0
 62
     1
  6
CONTINUOUS
 10
549.261597
 20
512.740601
 11
549.261597
 21
511.340668
  0
LINE
  8
LC-003-002-----0
 62
     1
  6
CONTINUOUS
 10
546.061584
 20
513.740601
 11
546.061584
 21
512.740601
  0
LINE
  8
LC-003-002-----0
 62
     1
  6
CONTINUOUS
 10
550.061584
 20
513.740601
 11
550.061584
 21
512.740601
  0
LINE
  8
LC-003-002-----0
 62
     1
  6
CONTINUOUS
 10
550.561584
 20
513.740601
 11
545.561584
 21
513.740601
  0
LINE
  8
LC-003-002-----0
 62
     1
  6
CONTINUOUS
 10
545.561584
 20
514.740601
 11
545.561584
 21
513.740601
  0
LINE
  8
LC-003-002-----0
 62
     1
  6
CONTINUOUS
 10
550.561584
 20
514.740601
 11
550.561584
 21
513.740601
  0
LINE
  8
LC-003-002-----0
 62
     1
  6
CONTINUOUS
 10
550.561584
 20
514.740601
 11
545.561584
 21
514.740601
  0
LINE
  8
LC-003-002-----0
 62
     1
  6
CONTINUOUS
 10
549.561584
 20
516.740601
 11
546.561584
 21
516.740601
  0
ARC
  8
LC-003-002-----0
 62
     1
  6
CONTINUOUS
 10
548.061584
 20
514.740601
 40
2.338464
 50
58.788702
 51
121.211296
  0
LINE
  8
LC-003-002-----0
 62
     1
  6
CONTINUOUS
 10
549.561584
 20
516.740601
 11
550.561584
 21
514.740601
  0
LINE
  8
LC-003-002-----0
 62
     1
  6
CONTINUOUS
 10
546.561584
 20
516.740601
 11
545.561584
 21
514.740601
  0
LINE
  8
LC-005-002-RND-0
 62
     2
  6
DASHDOT
 10
648.716980
 20
491.340637
 11
718.720154
 21
491.340637
  0
LINE
  8
LC-005-002-RND-0
 62
     2
  6
DASHDOT
 10
696.108704
 20
503.751129
 11
703.553345
 21
511.195740
  0
CIRCLE
  8
LC-003-002-----0
 62
     1
  6
CONTINUOUS
 10
683.698242
 20
516.840637
 40
2.900000
  0
LINE
  8
LC-003-002-----0
 62
     1
  6
CONTINUOUS
 10
461.350189
 20
481.340637
 11
489.061584
 21
481.340637
  0
LINE
  8
LC-005-002-RND-0
 62
     2
  6
DASHDOT
 10
683.698242
 20
457.857880
 11
683.698242
 21
525.779663
  0
LINE
  8
LC-005-002-RND-0
 62
     2
  6
DASHDOT
 10
608.887817
 20
516.840637
 11
597.713745
 21
516.840637
  0
LINE
  8
LC-005-002-RND-0
 62
     2
  6
DASHDOT
 10
608.887817
 20
465.840637
 11
597.713745
 21
465.840637
  0
LINE
  8
LC-003-002-----0
 62
     1
  6
CONTINUOUS
 10
607.061584
 20
511.840637
 11
601.361572
 21
511.840637
  0
LINE
  8
LC-003-002-----0
 62
     1
  6
CONTINUOUS
 10
601.361572
 20
519.740601
 11
599.061584
 21
519.740601
  0
LINE
  8
LC-003-002-----0
 62
     1
  6
CONTINUOUS
 10
601.361572
 20
513.940613
 11
599.061584
 21
513.940613
  0
LINE
  8
LC-003-002-----0
 62
     1
  6
CONTINUOUS
 10
601.361572
 20
511.840637
 11
601.361572
 21
521.840637
  0
LINE
  8
LC-003-002-----0
 62
     1
  6
CONTINUOUS
 10
599.061584
 20
491.340637
 11
599.061584
 21
461.340637
  0
LINE
  8
LC-003-002-----0
 62
     1
  6
CONTINUOUS
 10
607.061584
 20
501.340637
 11
607.061584
 21
521.340637
  0
LINE
  8
LC-003-002-----0
 62
     1
  6
CONTINUOUS
 10
546.061584
 20
511.340637
 11
546.061584
 21
504.340637
  0
LINE
  8
LC-003-002-----0
 62
     1
  6
CONTINUOUS
 10
550.061584
 20
511.340637
 11
550.061584
 21
504.340637
  0
LINE
  8
LC-008-003-----0
 62
     2
  6
DASHED
 10
606.561584
 20
460.840637
 11
601.361572
 21
460.840637
  0
CIRCLE
  8
LC-008-003-----0
 62
     2
  6
DASHED
 10
658.198242
 20
491.340637
 40
5.000000
  0
CIRCLE
  8
LC-003-002-----0
 62
     1
  6
CONTINUOUS
 10
658.198242
 20
491.340637
 40
2.900000
  0
CIRCLE
  8
LC-008-003-----0
 62
     2
  6
DASHED
 10
683.698242
 20
516.840637
 40
5.000000
  0
LINE
  8
LC-003-002-----0
 62
     1
  6
CONTINUOUS
 10
607.061584
 20
501.340637
 11
630.211243
 21
501.340637
  0
CIRCLE
  8
LC-003-002-----0
 62
     1
  6
CONTINUOUS
 10
683.698242
 20
465.840637
 40
2.900000
  0
CIRCLE
  8
LC-008-003-----0
 62
     2
  6
DASHED
 10
683.698242
 20
465.840637
 40
5.000000
  0
LINE
  8
LC-003-002-----0
 62
     1
  6
CONTINUOUS
 10
599.061584
 20
511.040619
 11
598.061584
 21
511.040619
  0
LINE
  8
LC-003-002-----0
 62
     1
  6
CONTINUOUS
 10
599.061584
 20
471.640625
 11
598.061584
 21
471.640625
  0
ARC
  8
LC-003-002-----0
 62
     1
  6
CONTINUOUS
 10
489.561584
 20
471.840637
 40
0.500000
 50
180.000009
 51
269.999997
  0
ARC
  8
LC-003-002-----0
 62
     1
  6
CONTINUOUS
 10
489.561584
 20
510.840637
 40
0.500000
 50
90.000003
 51
180.000009
  0
LINE
  8
LC-003-002-----0
 62
     1
  6
CONTINUOUS
 10
599.061584
 20
521.340637
 11
600.061584
 21
522.340637
  0
LINE
  8
LC-003-002-----0
 62
     1
  6
CONTINUOUS
 10
599.061584
 20
461.340637
 11
600.061584
 21
460.340637
  0
LINE
  8
LC-003-002-----0
 62
     1
  6
CONTINUOUS
 10
600.061584
 20
491.340637
 11
600.061584
 21
460.340637
  0
LINE
  8
LC-003-002-----0
 62
     1
  6
CONTINUOUS
 10
607.061584
 20
521.340637
 11
606.061584
 21
522.340637
  0
LINE
  8
LC-003-002-----0
 62
     1
  6
CONTINUOUS
 10
606.061584
 20
460.340637
 11
607.061584
 21
461.340637
  0
LINE
  8
LC-003-002-----0
 62
     1
  6
CONTINUOUS
 10
606.061584
 20
491.340637
 11
606.061584
 21
460.340637
  0
LINE
  8
LC-003-002-----0
 62
     1
  6
CONTINUOUS
 10
696.072571
 20
507.250519
 11
699.608093
 21
503.714996
  0
LINE
  8
LC-003-002-----0
 62
     1
  6
CONTINUOUS
 10
698.830322
 20
506.472717
 11
697.840332
 21
505.482758
  0
LINE
  8
LC-003-002-----0
 62
     1
  6
CONTINUOUS
 10
700.598083
 20
504.704956
 11
697.062561
 21
508.240479
  0
LINE
  8
LC-003-002-----0
 62
     1
  6
CONTINUOUS
 10
698.123169
 20
508.594025
 11
697.416077
 21
507.886932
  0
LINE
  8
LC-003-002-----0
 62
     1
  6
CONTINUOUS
 10
700.951599
 20
505.765594
 11
700.244507
 21
505.058502
  0
LINE
  8
LC-003-002-----0
 62
     1
  6
CONTINUOUS
 10
701.305176
 20
505.412048
 11
697.769653
 21
508.947571
  0
LINE
  8
LC-003-002-----0
 62
     1
  6
CONTINUOUS
 10
698.476746
 20
509.654694
 11
697.769653
 21
508.947571
  0
LINE
  8
LC-003-002-----0
 62
     1
  6
CONTINUOUS
 10
702.012268
 20
506.119171
 11
701.305176
 21
505.412048
  0
LINE
  8
LC-003-002-----0
 62
     1
  6
CONTINUOUS
 10
702.012268
 20
506.119171
 11
698.476746
 21
509.654694
  0
LINE
  8
LC-003-002-----0
 62
     1
  6
CONTINUOUS
 10
702.719360
 20
508.240479
 11
700.598083
 21
510.361786
  0
ARC
  8
LC-003-002-----0
 62
     1
  6
CONTINUOUS
 10
700.244507
 20
507.886932
 40
2.338464
 50
13.788703
 51
76.211299
  0
LINE
  8
LC-003-002-----0
 62
     1
  6
CONTINUOUS
 10
702.719360
 20
508.240479
 11
702.012268
 21
506.119171
  0
LINE
  8
LC-003-002-----0
 62
     1
  6
CONTINUOUS
 10
700.598083
 20
510.361786
 11
698.476746
 21
509.654694
  0
LINE
  8
LC-003-002-----0
 62
     1
  6
CONTINUOUS
 10
699.608093
 20
503.714996
 11
700.598083
 21
504.704956
  0
LINE
  8
LC-003-002-----0
 62
     1
  6
CONTINUOUS
 10
696.072571
 20
507.250519
 11
697.062561
 21
508.240479
  0
LINE
  8
LC-008-003-----0
 62
     2
  6
DASHED
 10
489.061584
 20
481.340637
 11
607.061584
 21
481.340637
  0
LINE
  8
LC-003-002-----0
 62
     1
  6
CONTINUOUS
 10
489.061584
 20
501.340637
 11
462.795959
 21
501.340637
  0
LINE
  8
LC-003-002-----0
 62
     1
  6
CONTINUOUS
 10
607.061584
 20
481.340637
 11
630.693176
 21
481.340637
  0
CIRCLE
  8
LC-003-002-----0
 62
     1
  6
CONTINUOUS
 10
683.698242
 20
491.340637
 40
9.750000
  0
LINE
  8
LC-008-003-----0
 62
     2
  6
DASHED
 10
601.361572
 20
460.840637
 11
601.361572
 21
470.840637
  0
LINE
  8
LC-008-003-----0
 62
     2
  6
DASHED
 10
601.361572
 20
462.940613
 11
599.061584
 21
462.940613
  0
LINE
  8
LC-008-003-----0
 62
     2
  6
DASHED
 10
601.361572
 20
468.740631
 11
599.061584
 21
468.740631
  0
LINE
  8
LC-008-003-----0
 62
     2
  6
DASHED
 10
607.061584
 20
470.840637
 11
601.361572
 21
470.840637
  0
CIRCLE
  8
LC-003-002-----0
 62
     1
  6
CONTINUOUS
 10
709.198242
 20
491.340637
 40
2.900000
  0
CIRCLE
  8
LC-008-003-----0
 62
     2
  6
DASHED
 10
709.198242
 20
491.340637
 40
5.000000
  0
CIRCLE
  8
LC-003-002-----0
 62
     1
  6
CONTINUOUS
 10
683.698242
 20
491.340637
 40
20.000000
  0
CIRCLE
  8
LC-005-002-RND-0
 62
     2
  6
DASHDOT
 10
683.698242
 20
491.340637
 40
25.500000
  0
CIRCLE
  8
LC-003-002-----0
 62
     1
  6
CONTINUOUS
 10
683.698242
 20
491.340637
 40
30.000000
  0
CIRCLE
  8
LC-003-002-----0
 62
     1
  6
CONTINUOUS
 10
683.698242
 20
491.340637
 40
31.000000
  0
LINE
  8
LC-003-002-----0
 62
     1
  6
CONTINUOUS
 10
607.061584
 20
501.340637
 11
489.061584
 21
501.340637
  0
LINE
  8
LC-003-002-----0
 62
     1
  6
CONTINUOUS
 10
568.061584
 20
504.340637
 11
568.061584
 21
501.340637
  0
LINE
  8
LC-003-002-----0
 62
     1
  6
CONTINUOUS
 10
604.561584
 20
504.340637
 11
603.234680
 21
504.340637
  0
CIRCLE
  8
LC-003-002-----0
 62
     1
  6
CONTINUOUS
 10
587.561584
 20
502.840637
 40
1.500000
  0
CIRCLE
  8
LC-003-002-----0
 62
     1
  6
CONTINUOUS
 10
590.561584
 20
502.840637
 40
1.500000
  0
CIRCLE
  8
LC-003-002-----0
 62
     1
  6
CONTINUOUS
 10
593.561584
 20
502.840637
 40
1.500000
  0
CIRCLE
  8
LC-003-002-----0
 62
     1
  6
CONTINUOUS
 10
596.561584
 20
502.840637
 40
1.500000
  0
CIRCLE
  8
LC-003-002-----0
 62
     1
  6
CONTINUOUS
 10
599.561584
 20
503.240631
 40
1.500000
  0
LINE
  8
LC-003-002-----0
 62
     1
  6
CONTINUOUS
 10
598.541809
 20
504.340637
 11
576.581360
 21
504.340637
  0
ARC
  8
LC-003-002-----0
 62
     1
  6
CONTINUOUS
 10
601.908020
 20
503.640625
 40
1.500000
 50
227.166577
 51
152.181860
  0
CIRCLE
  8
LC-003-002-----0
 62
     1
  6
CONTINUOUS
 10
584.561584
 20
502.840637
 40
1.500000
  0
CIRCLE
  8
LC-003-002-----0
 62
     1
  6
CONTINUOUS
 10
581.561584
 20
502.840637
 40
1.500000
  0
CIRCLE
  8
LC-003-002-----0
 62
     1
  6
CONTINUOUS
 10
578.561584
 20
502.840637
 40
1.500000
  0
CIRCLE
  8
LC-003-002-----0
 62
     1
  6
CONTINUOUS
 10
575.561584
 20
503.240631
 40
1.500000
  0
ARC
  8
LC-003-002-----0
 62
     1
  6
CONTINUOUS
 10
573.215149
 20
503.640625
 40
1.500000
 50
27.818140
 51
312.833429
  0
LINE
  8
LC-003-002-----0
 62
     1
  6
CONTINUOUS
 10
605.561584
 20
505.840637
 11
605.561584
 21
501.340637
  0
LINE
  8
LC-003-002-----0
 62
     1
  6
CONTINUOUS
 10
605.061584
 20
505.840637
 11
605.061584
 21
501.340637
  0
LINE
  8
LC-003-002-----0
 62
     1
  6
CONTINUOUS
 10
604.561584
 20
505.090637
 11
604.561584
 21
501.340637
  0
LINE
  8
LC-003-002-----0
 62
     1
  6
CONTINUOUS
 10
607.061584
 20
505.090637
 11
605.561584
 21
505.090637
  0
LINE
  8
LC-003-002-----0
 62
     1
  6
CONTINUOUS
 10
605.561584
 20
505.840637
 11
605.061584
 21
505.840637
  0
LINE
  8
LC-003-002-----0
 62
     1
  6
CONTINUOUS
 10
605.061584
 20
505.090637
 11
604.561584
 21
505.090637
  0
LINE
  8
LC-003-002-----0
 62
     1
  6
CONTINUOUS
 10
571.888489
 20
504.340637
 11
524.234680
 21
504.340637
  0
LINE
  8
LC-003-002-----0
 62
     1
  6
CONTINUOUS
 10
528.061584
 20
504.340637
 11
528.061584
 21
501.340637
  0
LINE
  8
LC-003-002-----0
 62
     1
  6
CONTINUOUS
 10
491.561584
 20
504.340637
 11
492.888489
 21
504.340637
  0
CIRCLE
  8
LC-003-002-----0
 62
     1
  6
CONTINUOUS
 10
508.561584
 20
502.840637
 40
1.500000
  0
CIRCLE
  8
LC-003-002-----0
 62
     1
  6
CONTINUOUS
 10
505.561584
 20
502.840637
 40
1.500000
  0
CIRCLE
  8
LC-003-002-----0
 62
     1
  6
CONTINUOUS
 10
502.561584
 20
502.840637
 40
1.500000
  0
CIRCLE
  8
LC-003-002-----0
 62
     1
  6
CONTINUOUS
 10
499.561584
 20
502.840637
 40
1.500000
  0
CIRCLE
  8
LC-003-002-----0
 62
     1
  6
CONTINUOUS
 10
496.561584
 20
503.240631
 40
1.500000
  0
LINE
  8
LC-003-002-----0
 62
     1
  6
CONTINUOUS
 10
497.581390
 20
504.340637
 11
519.541809
 21
504.340637
  0
ARC
  8
LC-003-002-----0
 62
     1
  6
CONTINUOUS
 10
494.215118
 20
503.640625
 40
1.500000
 50
27.818140
 51
312.833429
  0
CIRCLE
  8
LC-003-002-----0
 62
     1
  6
CONTINUOUS
 10
511.561584
 20
502.840637
 40
1.500000
  0
CIRCLE
  8
LC-003-002-----0
 62
     1
  6
CONTINUOUS
 10
514.561584
 20
502.840637
 40
1.500000
  0
CIRCLE
  8
LC-003-002-----0
 62
     1
  6
CONTINUOUS
 10
517.561584
 20
502.840637
 40
1.500000
  0
CIRCLE
  8
LC-003-002-----0
 62
     1
  6
CONTINUOUS
 10
520.561584
 20
503.240631
 40
1.500000
  0
ARC
  8
LC-003-002-----0
 62
     1
  6
CONTINUOUS
 10
522.908020
 20
503.640625
 40
1.500000
 50
227.166577
 51
152.181860
  0
LINE
  8
LC-003-002-----0
 62
     1
  6
CONTINUOUS
 10
490.561584
 20
505.840637
 11
490.561584
 21
501.340637
  0
LINE
  8
LC-003-002-----0
 62
     1
  6
CONTINUOUS
 10
491.061584
 20
505.840637
 11
491.061584
 21
501.340637
  0
LINE
  8
LC-003-002-----0
 62
     1
  6
CONTINUOUS
 10
491.561584
 20
505.090637
 11
491.561584
 21
501.340637
  0
LINE
  8
LC-003-002-----0
 62
     1
  6
CONTINUOUS
 10
489.061584
 20
505.090637
 11
490.561584
 21
505.090637
  0
LINE
  8
LC-003-002-----0
 62
     1
  6
CONTINUOUS
 10
490.561584
 20
505.840637
 11
491.061584
 21
505.840637
  0
LINE
  8
LC-003-002-----0
 62
     1
  6
CONTINUOUS
 10
491.061584
 20
505.090637
 11
491.561584
 21
505.090637
  0
ENDSEC
  0
EOF
