  0
SECTION
  2
HEADER
  9
$LIMMIN
 10
74.951790
 20
150.420929
  9
$LIMMAX
 10
309.276306
 20
207.892120
  9
$EXTMIN
 10
74.951790
 20
150.420929
  9
$EXTMAX
 10
309.276306
 20
207.892120
  0
ENDSEC
  0
SECTION
  2
TABLES
  0
TABLE
  2
LTYPE
 70
     3
  0
LTYPE
  2
CONTINUOUS
 70
    64
  3
Ausgezogene Linie
 72
    65
 73
     0
 40
0.0
  0
LTYPE
  2
DASHED
 70
    64
  3
__ __ __ __ __ __ __ __ __ __ __ __ __ __ __
 72
    65
 73
     2
 40
0.75
 49
0.5
 49
-0.25
  0
LTYPE
  2
DASHDOT
 70
    64
  3
__ . __ . __ . __ . __ . __ . __ . __ . __ . __
 72
    65
 73
     4
 40
1.0
 49
0.5
 49
-0.25
 49
0.0
 49
-0.25
  0
ENDTAB
  0
TABLE
  2
LAYER
 70
     5
  0
LAYER
  2
LC-INFO-1-1-MM-A1-0
 70
    64
 62
     7
  6
CONTINUOUS
  0
LAYER
  2
LC-003-002-----0
 70
    64
 62
     7
  6
CONTINUOUS
  0
LAYER
  2
LC-005-002-RND-0
 70
    64
 62
     7
  6
CONTINUOUS
  0
LAYER
  2
LC-008-003-----0
 70
    64
 62
     7
  6
CONTINUOUS
  0
LAYER
  2
LC-004-005-----0
 70
    64
 62
     7
  6
CONTINUOUS
  0
ENDTAB
  0
TABLE
  2
STYLE
 70
     1
  0
STYLE
  2
TXT8
 70
    64
 40
0.0
 41
1.0
 50
0.0
 71
     0
 42
3.500000
  3
TXT8
  4

  0
ENDTAB
  0
ENDSEC
  0
SECTION
  2
BLOCKS
  0
ENDSEC
  0
SECTION
  2
ENTITIES
  0
LINE
  8
LC-004-005-----0
 62
     2
  6
CONTINUOUS
 10
205.447266
 20
205.447266
 11
205.706818
 21
205.706818
  0
LINE
  8
LC-004-005-----0
 62
     2
  6
CONTINUOUS
 10
199.104630
 20
203.347260
 11
200.766373
 21
205.009003
  0
LINE
  8
LC-004-005-----0
 62
     2
  6
CONTINUOUS
 10
201.204620
 20
205.447266
 11
201.704620
 21
205.947266
  0
LINE
  8
LC-004-005-----0
 62
     2
  6
CONTINUOUS
 10
150.763504
 20
188.947266
 11
152.466370
 21
190.650131
  0
LINE
  8
LC-004-005-----0
 62
     2
  6
CONTINUOUS
 10
146.520859
 20
188.947266
 11
152.466370
 21
194.892776
  0
LINE
  8
LC-004-005-----0
 62
     2
  6
CONTINUOUS
 10
142.278214
 20
188.947266
 11
148.278214
 21
194.947266
  0
LINE
  8
LC-004-005-----0
 62
     2
  6
CONTINUOUS
 10
138.035583
 20
188.947266
 11
144.035583
 21
194.947266
  0
LINE
  8
LC-004-005-----0
 62
     2
  6
CONTINUOUS
 10
133.792938
 20
188.947266
 11
139.792938
 21
194.947266
  0
LINE
  8
LC-004-005-----0
 62
     2
  6
CONTINUOUS
 10
129.842606
 20
189.239578
 11
135.550293
 21
194.947266
  0
LINE
  8
LC-004-005-----0
 62
     2
  6
CONTINUOUS
 10
125.307655
 20
188.947266
 11
131.307648
 21
194.947266
  0
LINE
  8
LC-004-005-----0
 62
     2
  6
CONTINUOUS
 10
121.065018
 20
188.947266
 11
127.065018
 21
194.947266
  0
LINE
  8
LC-004-005-----0
 62
     2
  6
CONTINUOUS
 10
116.822372
 20
188.947266
 11
122.822372
 21
194.947266
  0
LINE
  8
LC-004-005-----0
 62
     2
  6
CONTINUOUS
 10
112.579735
 20
188.947266
 11
118.579735
 21
194.947266
  0
LINE
  8
LC-004-005-----0
 62
     2
  6
CONTINUOUS
 10
108.814835
 20
189.425018
 11
114.337090
 21
194.947266
  0
LINE
  8
LC-004-005-----0
 62
     2
  6
CONTINUOUS
 10
104.716370
 20
189.569183
 11
110.094452
 21
194.947266
  0
LINE
  8
LC-004-005-----0
 62
     2
  6
CONTINUOUS
 10
103.466370
 20
192.561829
 11
105.851807
 21
194.947266
  0
LINE
  8
LC-004-005-----0
 62
     2
  6
CONTINUOUS
 10
206.417831
 20
189.447266
 11
206.466370
 21
189.495804
  0
LINE
  8
LC-004-005-----0
 62
     2
  6
CONTINUOUS
 10
202.124664
 20
189.396744
 11
206.466370
 21
193.738449
  0
LINE
  8
LC-004-005-----0
 62
     2
  6
CONTINUOUS
 10
197.432541
 20
188.947266
 11
203.932541
 21
195.447266
  0
LINE
  8
LC-004-005-----0
 62
     2
  6
CONTINUOUS
 10
193.189911
 20
188.947266
 11
200.766373
 21
196.523727
  0
LINE
  8
LC-004-005-----0
 62
     2
  6
CONTINUOUS
 10
188.947266
 20
188.947266
 11
194.947266
 21
194.947266
  0
LINE
  8
LC-004-005-----0
 62
     2
  6
CONTINUOUS
 10
184.704620
 20
188.947266
 11
190.704620
 21
194.947266
  0
LINE
  8
LC-004-005-----0
 62
     2
  6
CONTINUOUS
 10
180.563858
 20
189.049149
 11
186.461990
 21
194.947266
  0
LINE
  8
LC-004-005-----0
 62
     2
  6
CONTINUOUS
 10
176.219345
 20
188.947266
 11
182.219345
 21
194.947266
  0
LINE
  8
LC-004-005-----0
 62
     2
  6
CONTINUOUS
 10
171.976700
 20
188.947266
 11
177.976700
 21
194.947266
  0
LINE
  8
LC-004-005-----0
 62
     2
  6
CONTINUOUS
 10
167.734055
 20
188.947266
 11
173.734055
 21
194.947266
  0
LINE
  8
LC-004-005-----0
 62
     2
  6
CONTINUOUS
 10
163.491425
 20
188.947266
 11
169.491425
 21
194.947266
  0
LINE
  8
LC-004-005-----0
 62
     2
  6
CONTINUOUS
 10
159.248779
 20
188.947266
 11
165.248779
 21
194.947266
  0
LINE
  8
LC-004-005-----0
 62
     2
  6
CONTINUOUS
 10
156.466370
 20
190.407501
 11
161.006134
 21
194.947266
  0
LINE
  8
LC-004-005-----0
 62
     2
  6
CONTINUOUS
 10
156.466370
 20
194.650131
 11
156.763504
 21
194.947266
  0
LINE
  8
LC-004-005-----0
 62
     2
  6
CONTINUOUS
 10
229.616013
 20
186.947266
 11
229.233063
 21
185.879211
  0
LINE
  8
LC-004-005-----0
 62
     2
  6
CONTINUOUS
 10
229.233063
 20
185.879211
 11
228.583298
 21
183.483917
  0
LINE
  8
LC-004-005-----0
 62
     2
  6
CONTINUOUS
 10
228.583298
 20
183.483917
 11
228.415359
 21
180.974762
  0
LINE
  8
LC-004-005-----0
 62
     2
  6
CONTINUOUS
 10
228.415359
 20
180.974762
 11
228.415359
 21
180.974762
  0
LINE
  8
LC-004-005-----0
 62
     2
  6
CONTINUOUS
 10
228.415359
 20
180.974762
 11
228.415359
 21
180.974762
  0
LINE
  8
LC-004-005-----0
 62
     2
  6
CONTINUOUS
 10
228.415359
 20
180.974762
 11
228.575989
 21
179.521408
  0
LINE
  8
LC-004-005-----0
 62
     2
  6
CONTINUOUS
 10
228.575989
 20
179.521408
 11
228.575989
 21
179.521408
  0
LINE
  8
LC-004-005-----0
 62
     2
  6
CONTINUOUS
 10
228.575989
 20
179.521408
 11
228.254715
 21
178.189163
  0
LINE
  8
LC-004-005-----0
 62
     2
  6
CONTINUOUS
 10
228.254715
 20
178.189163
 11
228.254715
 21
178.189163
  0
LINE
  8
LC-004-005-----0
 62
     2
  6
CONTINUOUS
 10
228.254715
 20
178.189163
 11
230.343033
 21
177.704727
  0
LINE
  8
LC-004-005-----0
 62
     2
  6
CONTINUOUS
 10
230.343033
 20
177.704727
 11
230.510010
 21
176.386932
  0
LINE
  8
LC-004-005-----0
 62
     2
  6
CONTINUOUS
 10
230.510010
 20
176.386932
 11
229.344452
 21
174.038528
  0
LINE
  8
LC-004-005-----0
 62
     2
  6
CONTINUOUS
 10
229.344452
 20
174.038528
 11
229.539825
 21
171.524689
  0
LINE
  8
LC-004-005-----0
 62
     2
  6
CONTINUOUS
 10
229.539825
 20
171.524689
 11
229.539825
 21
171.524689
  0
LINE
  8
LC-004-005-----0
 62
     2
  6
CONTINUOUS
 10
229.539825
 20
171.524689
 11
229.539825
 21
171.524689
  0
LINE
  8
LC-004-005-----0
 62
     2
  6
CONTINUOUS
 10
229.539825
 20
171.524689
 11
230.097931
 21
170.947266
  0
LINE
  8
LC-004-005-----0
 62
     2
  6
CONTINUOUS
 10
77.200737
 20
186.947266
 11
77.554352
 21
185.776962
  0
LINE
  8
LC-004-005-----0
 62
     2
  6
CONTINUOUS
 10
77.554352
 20
185.776962
 11
78.050758
 21
183.171768
  0
LINE
  8
LC-004-005-----0
 62
     2
  6
CONTINUOUS
 10
78.050758
 20
183.171768
 11
77.843292
 21
180.490311
  0
LINE
  8
LC-004-005-----0
 62
     2
  6
CONTINUOUS
 10
77.843292
 20
180.490311
 11
77.843292
 21
180.490311
  0
LINE
  8
LC-004-005-----0
 62
     2
  6
CONTINUOUS
 10
77.843292
 20
180.490311
 11
76.879456
 21
178.552505
  0
LINE
  8
LC-004-005-----0
 62
     2
  6
CONTINUOUS
 10
76.879456
 20
178.552505
 11
76.879456
 21
178.552505
  0
LINE
  8
LC-004-005-----0
 62
     2
  6
CONTINUOUS
 10
76.879456
 20
178.552505
 11
76.879456
 21
177.099152
  0
LINE
  8
LC-004-005-----0
 62
     2
  6
CONTINUOUS
 10
76.879456
 20
177.099152
 11
76.615669
 21
174.452072
  0
LINE
  8
LC-004-005-----0
 62
     2
  6
CONTINUOUS
 10
76.615669
 20
174.452072
 11
76.060387
 21
172.016129
  0
LINE
  8
LC-004-005-----0
 62
     2
  6
CONTINUOUS
 10
76.060387
 20
172.016129
 11
75.754982
 21
170.947266
  0
LINE
  8
LC-005-002-RND-0
 62
     2
  6
DASHDOT
 10
288.992828
 20
187.904831
 11
296.699585
 21
195.611588
  0
LINE
  8
LC-003-002-----0
 62
     1
  6
CONTINUOUS
 10
205.966370
 20
205.447266
 11
200.766373
 21
205.447266
  0
LINE
  8
LC-005-002-RND-0
 62
     2
  6
DASHDOT
 10
231.467499
 20
178.947266
 11
74.951790
 21
178.947266
  0
LINE
  8
LC-003-002-----0
 62
     1
  6
CONTINUOUS
 10
206.466370
 20
152.947266
 11
206.466370
 21
178.947266
  0
LINE
  8
LC-003-002-----0
 62
     1
  6
CONTINUOUS
 10
197.466370
 20
194.947266
 11
103.966370
 21
194.947266
  0
LINE
  8
LC-003-002-----0
 62
     1
  6
CONTINUOUS
 10
197.466370
 20
162.947266
 11
103.966370
 21
162.947266
  0
LINE
  8
LC-003-002-----0
 62
     1
  6
CONTINUOUS
 10
198.466370
 20
204.947266
 11
198.466370
 21
194.647263
  0
LINE
  8
LC-003-002-----0
 62
     1
  6
CONTINUOUS
 10
205.466370
 20
205.947266
 11
199.466370
 21
205.947266
  0
LINE
  8
LC-003-002-----0
 62
     1
  6
CONTINUOUS
 10
199.466370
 20
151.947266
 11
205.466370
 21
151.947266
  0
LINE
  8
LC-003-002-----0
 62
     1
  6
CONTINUOUS
 10
103.466370
 20
194.447266
 11
103.466370
 21
186.947266
  0
LINE
  8
LC-005-002-RND-0
 62
     2
  6
DASHDOT
 10
154.466370
 20
202.495544
 11
154.466370
 21
188.064880
  0
LINE
  8
LC-003-002-----0
 62
     1
  6
CONTINUOUS
 10
151.566376
 20
196.347260
 11
151.566376
 21
194.947266
  0
LINE
  8
LC-003-002-----0
 62
     1
  6
CONTINUOUS
 10
157.366364
 20
196.347260
 11
157.366364
 21
194.947266
  0
LINE
  8
LC-003-002-----0
 62
     1
  6
CONTINUOUS
 10
153.266373
 20
196.347260
 11
153.266373
 21
194.947266
  0
LINE
  8
LC-003-002-----0
 62
     1
  6
CONTINUOUS
 10
157.366364
 20
196.347260
 11
151.566376
 21
196.347260
  0
LINE
  8
LC-003-002-----0
 62
     1
  6
CONTINUOUS
 10
155.666367
 20
196.347260
 11
155.666367
 21
194.947266
  0
LINE
  8
LC-003-002-----0
 62
     1
  6
CONTINUOUS
 10
152.466370
 20
197.347260
 11
152.466370
 21
196.347260
  0
LINE
  8
LC-003-002-----0
 62
     1
  6
CONTINUOUS
 10
156.466370
 20
197.347260
 11
156.466370
 21
196.347260
  0
LINE
  8
LC-003-002-----0
 62
     1
  6
CONTINUOUS
 10
156.966370
 20
197.347260
 11
151.966370
 21
197.347260
  0
LINE
  8
LC-003-002-----0
 62
     1
  6
CONTINUOUS
 10
151.966370
 20
198.347260
 11
151.966370
 21
197.347260
  0
LINE
  8
LC-003-002-----0
 62
     1
  6
CONTINUOUS
 10
156.966370
 20
198.347260
 11
156.966370
 21
197.347260
  0
LINE
  8
LC-003-002-----0
 62
     1
  6
CONTINUOUS
 10
156.966370
 20
198.347260
 11
151.966370
 21
198.347260
  0
LINE
  8
LC-003-002-----0
 62
     1
  6
CONTINUOUS
 10
155.966370
 20
200.347260
 11
152.966370
 21
200.347260
  0
ARC
  8
LC-003-002-----0
 62
     1
  6
CONTINUOUS
 10
154.466370
 20
198.347260
 40
2.338464
 50
58.788702
 51
121.211296
  0
LINE
  8
LC-003-002-----0
 62
     1
  6
CONTINUOUS
 10
155.966370
 20
200.347260
 11
156.966370
 21
198.347260
  0
LINE
  8
LC-003-002-----0
 62
     1
  6
CONTINUOUS
 10
152.966370
 20
200.347260
 11
151.966370
 21
198.347260
  0
LINE
  8
LC-005-002-RND-0
 62
     2
  6
DASHDOT
 10
251.164246
 20
178.947266
 11
309.276306
 21
178.947266
  0
LINE
  8
LC-005-002-RND-0
 62
     2
  6
DASHDOT
 10
280.035248
 20
150.420929
 11
280.035248
 21
207.892120
  0
LINE
  8
LC-003-002-----0
 62
     1
  6
CONTINUOUS
 10
103.466370
 20
178.947266
 11
103.466370
 21
163.447266
  0
LINE
  8
LC-008-003-----0
 62
     2
  6
DASHED
 10
206.466370
 20
170.947266
 11
103.466370
 21
170.947266
  0
CIRCLE
  8
LC-003-002-----0
 62
     1
  6
CONTINUOUS
 10
280.035248
 20
178.947266
 40
8.000000
  0
CIRCLE
  8
LC-005-002-RND-0
 62
     2
  6
DASHDOT
 10
280.035248
 20
178.947266
 40
21.500000
  0
LINE
  8
LC-005-002-RND-0
 62
     2
  6
DASHDOT
 10
208.292603
 20
200.447266
 11
197.118561
 21
200.447266
  0
LINE
  8
LC-005-002-RND-0
 62
     2
  6
DASHDOT
 10
208.292603
 20
157.447266
 11
197.118561
 21
157.447266
  0
LINE
  8
LC-008-003-----0
 62
     2
  6
DASHED
 10
206.466370
 20
162.447266
 11
200.766373
 21
162.447266
  0
LINE
  8
LC-008-003-----0
 62
     2
  6
DASHED
 10
205.966370
 20
152.447266
 11
200.766373
 21
152.447266
  0
LINE
  8
LC-008-003-----0
 62
     2
  6
DASHED
 10
200.766373
 20
160.347260
 11
198.466370
 21
160.347260
  0
LINE
  8
LC-008-003-----0
 62
     2
  6
DASHED
 10
200.766373
 20
154.547272
 11
198.466370
 21
154.547272
  0
LINE
  8
LC-008-003-----0
 62
     2
  6
DASHED
 10
200.766373
 20
152.447266
 11
200.766373
 21
162.447266
  0
CIRCLE
  8
LC-008-003-----0
 62
     2
  6
DASHED
 10
280.035248
 20
157.447266
 40
5.000000
  0
CIRCLE
  8
LC-008-003-----0
 62
     2
  6
DASHED
 10
301.535248
 20
178.947266
 40
5.000000
  0
CIRCLE
  8
LC-003-002-----0
 62
     1
  6
CONTINUOUS
 10
280.035248
 20
157.447266
 40
2.900000
  0
CIRCLE
  8
LC-003-002-----0
 62
     1
  6
CONTINUOUS
 10
301.535248
 20
178.947266
 40
2.900000
  0
CIRCLE
  8
LC-008-003-----0
 62
     2
  6
DASHED
 10
280.035248
 20
200.447266
 40
5.000000
  0
LINE
  8
LC-003-002-----0
 62
     1
  6
CONTINUOUS
 10
206.466370
 20
186.947266
 11
229.616013
 21
186.947266
  0
CIRCLE
  8
LC-008-003-----0
 62
     2
  6
DASHED
 10
258.535248
 20
178.947266
 40
5.000000
  0
CIRCLE
  8
LC-003-002-----0
 62
     1
  6
CONTINUOUS
 10
258.535248
 20
178.947266
 40
2.900000
  0
LINE
  8
LC-003-002-----0
 62
     1
  6
CONTINUOUS
 10
197.466370
 20
194.947266
 11
197.466370
 21
194.647263
  0
LINE
  8
LC-003-002-----0
 62
     1
  6
CONTINUOUS
 10
198.466370
 20
194.647263
 11
197.466370
 21
194.647263
  0
LINE
  8
LC-003-002-----0
 62
     1
  6
CONTINUOUS
 10
198.466370
 20
163.247269
 11
197.466370
 21
163.247269
  0
ARC
  8
LC-003-002-----0
 62
     1
  6
CONTINUOUS
 10
103.966370
 20
163.447266
 40
0.500000
 50
180.000009
 51
269.999997
  0
ARC
  8
LC-003-002-----0
 62
     1
  6
CONTINUOUS
 10
103.966370
 20
194.447266
 40
0.500000
 50
90.000003
 51
180.000009
  0
LINE
  8
LC-003-002-----0
 62
     1
  6
CONTINUOUS
 10
198.466370
 20
204.947266
 11
199.466370
 21
205.947266
  0
LINE
  8
LC-003-002-----0
 62
     1
  6
CONTINUOUS
 10
198.466370
 20
152.947266
 11
199.466370
 21
151.947266
  0
LINE
  8
LC-003-002-----0
 62
     1
  6
CONTINUOUS
 10
199.466370
 20
178.947266
 11
199.466370
 21
151.947266
  0
LINE
  8
LC-003-002-----0
 62
     1
  6
CONTINUOUS
 10
206.466370
 20
204.947266
 11
205.466370
 21
205.947266
  0
LINE
  8
LC-003-002-----0
 62
     1
  6
CONTINUOUS
 10
205.466370
 20
151.947266
 11
206.466370
 21
152.947266
  0
LINE
  8
LC-003-002-----0
 62
     1
  6
CONTINUOUS
 10
205.466370
 20
178.947266
 11
205.466370
 21
151.947266
  0
LINE
  8
LC-003-002-----0
 62
     1
  6
CONTINUOUS
 10
289.581207
 20
192.028748
 11
293.116730
 21
188.493210
  0
LINE
  8
LC-003-002-----0
 62
     1
  6
CONTINUOUS
 10
292.338898
 20
191.250916
 11
291.348969
 21
190.260971
  0
LINE
  8
LC-003-002-----0
 62
     1
  6
CONTINUOUS
 10
294.106689
 20
189.483154
 11
290.571136
 21
193.018692
  0
LINE
  8
LC-003-002-----0
 62
     1
  6
CONTINUOUS
 10
291.631805
 20
193.372238
 11
290.924683
 21
192.665131
  0
LINE
  8
LC-003-002-----0
 62
     1
  6
CONTINUOUS
 10
294.460236
 20
190.543823
 11
293.753113
 21
189.836716
  0
LINE
  8
LC-003-002-----0
 62
     1
  6
CONTINUOUS
 10
294.813782
 20
190.190262
 11
291.278259
 21
193.725800
  0
LINE
  8
LC-003-002-----0
 62
     1
  6
CONTINUOUS
 10
291.985352
 20
194.432907
 11
291.278259
 21
193.725800
  0
LINE
  8
LC-003-002-----0
 62
     1
  6
CONTINUOUS
 10
295.520905
 20
190.897369
 11
294.813782
 21
190.190262
  0
LINE
  8
LC-003-002-----0
 62
     1
  6
CONTINUOUS
 10
295.520905
 20
190.897369
 11
291.985352
 21
194.432907
  0
LINE
  8
LC-003-002-----0
 62
     1
  6
CONTINUOUS
 10
296.227997
 20
193.018692
 11
294.106689
 21
195.140015
  0
ARC
  8
LC-003-002-----0
 62
     1
  6
CONTINUOUS
 10
293.753113
 20
192.665131
 40
2.338464
 50
13.788703
 51
76.211299
  0
LINE
  8
LC-003-002-----0
 62
     1
  6
CONTINUOUS
 10
296.227997
 20
193.018692
 11
295.520905
 21
190.897369
  0
LINE
  8
LC-003-002-----0
 62
     1
  6
CONTINUOUS
 10
294.106689
 20
195.140015
 11
291.985352
 21
194.432907
  0
LINE
  8
LC-003-002-----0
 62
     1
  6
CONTINUOUS
 10
293.116730
 20
188.493210
 11
294.106689
 21
189.483154
  0
LINE
  8
LC-003-002-----0
 62
     1
  6
CONTINUOUS
 10
289.581207
 20
192.028748
 11
290.571136
 21
193.018692
  0
LINE
  8
LC-003-002-----0
 62
     1
  6
CONTINUOUS
 10
206.466370
 20
170.947266
 11
230.097931
 21
170.947266
  0
LINE
  8
LC-003-002-----0
 62
     1
  6
CONTINUOUS
 10
103.466370
 20
186.947266
 11
77.200737
 21
186.947266
  0
LINE
  8
LC-003-002-----0
 62
     1
  6
CONTINUOUS
 10
103.466370
 20
170.947266
 11
75.754982
 21
170.947266
  0
CIRCLE
  8
LC-003-002-----0
 62
     1
  6
CONTINUOUS
 10
280.035248
 20
178.947266
 40
26.000000
  0
CIRCLE
  8
LC-003-002-----0
 62
     1
  6
CONTINUOUS
 10
280.035248
 20
178.947266
 40
27.000000
  0
CIRCLE
  8
LC-003-002-----0
 62
     1
  6
CONTINUOUS
 10
280.035248
 20
178.947266
 40
16.000000
  0
LINE
  8
LC-003-002-----0
 62
     1
  6
CONTINUOUS
 10
206.466370
 20
195.447266
 11
200.766373
 21
195.447266
  0
LINE
  8
LC-003-002-----0
 62
     1
  6
CONTINUOUS
 10
200.766373
 20
203.347260
 11
198.466370
 21
203.347260
  0
CIRCLE
  8
LC-003-002-----0
 62
     1
  6
CONTINUOUS
 10
280.035248
 20
200.447266
 40
2.900000
  0
LINE
  8
LC-003-002-----0
 62
     1
  6
CONTINUOUS
 10
200.766373
 20
197.547272
 11
198.466370
 21
197.547272
  0
LINE
  8
LC-003-002-----0
 62
     1
  6
CONTINUOUS
 10
200.766373
 20
195.447266
 11
200.766373
 21
205.447266
  0
LINE
  8
LC-003-002-----0
 62
     1
  6
CONTINUOUS
 10
152.466370
 20
194.947266
 11
152.466370
 21
188.947266
  0
LINE
  8
LC-003-002-----0
 62
     1
  6
CONTINUOUS
 10
103.466370
 20
186.947266
 11
206.466370
 21
186.947266
  0
LINE
  8
LC-003-002-----0
 62
     1
  6
CONTINUOUS
 10
180.680511
 20
188.947266
 11
199.252228
 21
188.947266
  0
LINE
  8
LC-003-002-----0
 62
     1
  6
CONTINUOUS
 10
205.466370
 20
189.947266
 11
205.466370
 21
186.947266
  0
LINE
  8
LC-003-002-----0
 62
     1
  6
CONTINUOUS
 10
173.466370
 20
188.947266
 11
173.466370
 21
186.947266
  0
LINE
  8
LC-003-002-----0
 62
     1
  6
CONTINUOUS
 10
205.216370
 20
189.947266
 11
205.216370
 21
186.947266
  0
CIRCLE
  8
LC-003-002-----0
 62
     1
  6
CONTINUOUS
 10
189.966370
 20
187.947266
 40
1.000000
  0
CIRCLE
  8
LC-003-002-----0
 62
     1
  6
CONTINUOUS
 10
191.966370
 20
187.947266
 40
1.000000
  0
CIRCLE
  8
LC-003-002-----0
 62
     1
  6
CONTINUOUS
 10
193.966370
 20
187.947266
 40
1.000000
  0
CIRCLE
  8
LC-003-002-----0
 62
     1
  6
CONTINUOUS
 10
195.966370
 20
187.947266
 40
1.000000
  0
CIRCLE
  8
LC-003-002-----0
 62
     1
  6
CONTINUOUS
 10
197.966370
 20
187.947266
 40
1.000000
  0
CIRCLE
  8
LC-003-002-----0
 62
     1
  6
CONTINUOUS
 10
199.966370
 20
188.247269
 40
1.000000
  0
LINE
  8
LC-003-002-----0
 62
     1
  6
CONTINUOUS
 10
202.513535
 20
188.947266
 11
204.966370
 21
188.947266
  0
ARC
  8
LC-003-002-----0
 62
     1
  6
CONTINUOUS
 10
201.597031
 20
188.547272
 40
1.000000
 50
224.427001
 51
156.421823
  0
CIRCLE
  8
LC-003-002-----0
 62
     1
  6
CONTINUOUS
 10
187.966370
 20
187.947266
 40
1.000000
  0
CIRCLE
  8
LC-003-002-----0
 62
     1
  6
CONTINUOUS
 10
185.966370
 20
187.947266
 40
1.000000
  0
CIRCLE
  8
LC-003-002-----0
 62
     1
  6
CONTINUOUS
 10
183.966370
 20
187.947266
 40
1.000000
  0
CIRCLE
  8
LC-003-002-----0
 62
     1
  6
CONTINUOUS
 10
181.966370
 20
187.947266
 40
1.000000
  0
CIRCLE
  8
LC-003-002-----0
 62
     1
  6
CONTINUOUS
 10
179.966370
 20
188.247269
 40
1.000000
  0
ARC
  8
LC-003-002-----0
 62
     1
  6
CONTINUOUS
 10
178.335709
 20
188.547272
 40
1.000000
 50
23.578178
 51
315.572997
  0
LINE
  8
LC-003-002-----0
 62
     1
  6
CONTINUOUS
 10
177.419189
 20
188.947266
 11
132.513535
 21
188.947266
  0
LINE
  8
LC-003-002-----0
 62
     1
  6
CONTINUOUS
 10
204.966370
 20
189.447266
 11
204.966370
 21
186.947266
  0
LINE
  8
LC-003-002-----0
 62
     1
  6
CONTINUOUS
 10
205.216370
 20
189.947266
 11
205.466370
 21
189.947266
  0
LINE
  8
LC-003-002-----0
 62
     1
  6
CONTINUOUS
 10
204.966370
 20
189.447266
 11
205.216370
 21
189.447266
  0
LINE
  8
LC-003-002-----0
 62
     1
  6
CONTINUOUS
 10
205.466370
 20
189.447266
 11
206.466370
 21
189.447266
  0
LINE
  8
LC-003-002-----0
 62
     1
  6
CONTINUOUS
 10
129.252228
 20
188.947266
 11
110.680511
 21
188.947266
  0
LINE
  8
LC-003-002-----0
 62
     1
  6
CONTINUOUS
 10
104.466370
 20
189.947266
 11
104.466370
 21
186.947266
  0
LINE
  8
LC-003-002-----0
 62
     1
  6
CONTINUOUS
 10
136.466370
 20
188.947266
 11
136.466370
 21
186.947266
  0
LINE
  8
LC-003-002-----0
 62
     1
  6
CONTINUOUS
 10
104.716370
 20
189.947266
 11
104.716370
 21
186.947266
  0
CIRCLE
  8
LC-003-002-----0
 62
     1
  6
CONTINUOUS
 10
119.966370
 20
187.947266
 40
1.000000
  0
CIRCLE
  8
LC-003-002-----0
 62
     1
  6
CONTINUOUS
 10
117.966370
 20
187.947266
 40
1.000000
  0
CIRCLE
  8
LC-003-002-----0
 62
     1
  6
CONTINUOUS
 10
115.966370
 20
187.947266
 40
1.000000
  0
CIRCLE
  8
LC-003-002-----0
 62
     1
  6
CONTINUOUS
 10
113.966370
 20
187.947266
 40
1.000000
  0
CIRCLE
  8
LC-003-002-----0
 62
     1
  6
CONTINUOUS
 10
111.966370
 20
187.947266
 40
1.000000
  0
CIRCLE
  8
LC-003-002-----0
 62
     1
  6
CONTINUOUS
 10
109.966370
 20
188.247269
 40
1.000000
  0
LINE
  8
LC-003-002-----0
 62
     1
  6
CONTINUOUS
 10
107.419197
 20
188.947266
 11
104.966370
 21
188.947266
  0
ARC
  8
LC-003-002-----0
 62
     1
  6
CONTINUOUS
 10
108.335709
 20
188.547272
 40
1.000000
 50
23.578178
 51
315.572997
  0
CIRCLE
  8
LC-003-002-----0
 62
     1
  6
CONTINUOUS
 10
121.966370
 20
187.947266
 40
1.000000
  0
CIRCLE
  8
LC-003-002-----0
 62
     1
  6
CONTINUOUS
 10
123.966370
 20
187.947266
 40
1.000000
  0
CIRCLE
  8
LC-003-002-----0
 62
     1
  6
CONTINUOUS
 10
125.966370
 20
187.947266
 40
1.000000
  0
CIRCLE
  8
LC-003-002-----0
 62
     1
  6
CONTINUOUS
 10
127.966370
 20
187.947266
 40
1.000000
  0
CIRCLE
  8
LC-003-002-----0
 62
     1
  6
CONTINUOUS
 10
129.966370
 20
188.247269
 40
1.000000
  0
ARC
  8
LC-003-002-----0
 62
     1
  6
CONTINUOUS
 10
131.597031
 20
188.547272
 40
1.000000
 50
224.427001
 51
156.421823
  0
LINE
  8
LC-003-002-----0
 62
     1
  6
CONTINUOUS
 10
104.966370
 20
189.447266
 11
104.966370
 21
186.947266
  0
LINE
  8
LC-003-002-----0
 62
     1
  6
CONTINUOUS
 10
104.716370
 20
189.947266
 11
104.466370
 21
189.947266
  0
LINE
  8
LC-003-002-----0
 62
     1
  6
CONTINUOUS
 10
104.966370
 20
189.447266
 11
104.716370
 21
189.447266
  0
LINE
  8
LC-003-002-----0
 62
     1
  6
CONTINUOUS
 10
104.466370
 20
189.447266
 11
103.466370
 21
189.447266
  0
LINE
  8
LC-003-002-----0
 62
     1
  6
CONTINUOUS
 10
156.466370
 20
194.947266
 11
156.466370
 21
188.947266
  0
LINE
  8
LC-003-002-----0
 62
     1
  6
CONTINUOUS
 10
197.466370
 20
178.947266
 11
197.466370
 21
162.947266
  0
LINE
  8
LC-003-002-----0
 62
     1
  6
CONTINUOUS
 10
198.466370
 20
178.947266
 11
198.466370
 21
152.947266
  0
LINE
  8
LC-003-002-----0
 62
     1
  6
CONTINUOUS
 10
206.466370
 20
186.947266
 11
206.466370
 21
204.947266
  0
ENDSEC
  0
EOF
