  0
SECTION
  2
HEADER
  9
$LIMMIN
 10
576.762756
 20
516.091431
  9
$LIMMAX
 10
985.139709
 20
640.740234
  9
$EXTMIN
 10
576.762756
 20
516.091431
  9
$EXTMAX
 10
985.139709
 20
640.740234
  0
ENDSEC
  0
SECTION
  2
TABLES
  0
TABLE
  2
LTYPE
 70
     3
  0
LTYPE
  2
CONTINUOUS
 70
    64
  3
Ausgezogene Linie
 72
    65
 73
     0
 40
0.0
  0
LTYPE
  2
DASHED
 70
    64
  3
__ __ __ __ __ __ __ __ __ __ __ __ __ __ __
 72
    65
 73
     2
 40
0.75
 49
0.5
 49
-0.25
  0
LTYPE
  2
DASHDOT
 70
    64
  3
__ . __ . __ . __ . __ . __ . __ . __ . __ . __
 72
    65
 73
     4
 40
1.0
 49
0.5
 49
-0.25
 49
0.0
 49
-0.25
  0
ENDTAB
  0
TABLE
  2
LAYER
 70
     4
  0
LAYER
  2
LC-003-002-----0
 70
    64
 62
     7
  6
CONTINUOUS
  0
LAYER
  2
LC-004-006-----0
 70
    64
 62
     7
  6
CONTINUOUS
  0
LAYER
  2
LC-006-012-----0
 70
    64
 62
     7
  6
CONTINUOUS
  0
LAYER
  2
LC-005-002-RND-0
 70
    64
 62
     7
  6
CONTINUOUS
  0
ENDTAB
  0
TABLE
  2
STYLE
 70
     1
  0
STYLE
  2
TXT8
 70
    64
 40
0.0
 41
1.0
 50
0.0
 71
     0
 42
3.500000
  3
TXT8
  4

  0
ENDTAB
  0
ENDSEC
  0
SECTION
  2
BLOCKS
  0
ENDSEC
  0
SECTION
  2
ENTITIES
  0
LINE
  8
LC-004-006-----0
 62
     2
  6
DASHDOT
 10
576.762756
 20
579.663940
 11
831.649109
 21
579.663940
  0
LINE
  8
LC-003-002-----0
 62
     1
  6
CONTINUOUS
 10
618.393555
 20
617.163940
 11
795.143555
 21
617.163940
  0
LINE
  8
LC-003-002-----0
 62
     1
  6
CONTINUOUS
 10
618.393555
 20
542.163940
 11
795.143555
 21
542.163940
  0
LINE
  8
LC-003-002-----0
 62
     1
  6
CONTINUOUS
 10
605.393555
 20
635.663940
 11
616.393555
 21
635.663940
  0
LINE
  8
LC-003-002-----0
 62
     1
  6
CONTINUOUS
 10
605.393555
 20
523.663940
 11
616.393555
 21
523.663940
  0
LINE
  8
LC-003-002-----0
 62
     1
  6
CONTINUOUS
 10
604.393555
 20
634.663940
 11
604.393555
 21
524.663940
  0
LINE
  8
LC-003-002-----0
 62
     1
  6
CONTINUOUS
 10
617.393555
 20
524.663940
 11
617.393555
 21
634.663940
  0
LINE
  8
LC-003-002-----0
 62
     1
  6
CONTINUOUS
 10
796.393555
 20
615.913940
 11
796.393555
 21
543.413940
  0
LINE
  8
LC-003-002-----0
 62
     1
  6
CONTINUOUS
 10
583.404358
 20
604.663940
 11
604.393555
 21
604.663940
  0
LINE
  8
LC-003-002-----0
 62
     1
  6
CONTINUOUS
 10
581.564209
 20
554.663940
 11
604.393555
 21
554.663940
  0
LINE
  8
LC-005-002-RND-0
 62
     2
  6
CONTINUOUS
 10
581.564209
 20
554.663940
 11
581.071289
 21
562.677856
  0
LINE
  8
LC-005-002-RND-0
 62
     2
  6
CONTINUOUS
 10
581.071289
 20
562.677856
 11
583.478210
 21
573.920410
  0
LINE
  8
LC-005-002-RND-0
 62
     2
  6
CONTINUOUS
 10
583.478210
 20
573.920410
 11
581.589905
 21
590.656555
  0
LINE
  8
LC-005-002-RND-0
 62
     2
  6
CONTINUOUS
 10
581.589905
 20
590.656555
 11
583.404358
 21
604.663940
  0
LINE
  8
LC-005-002-RND-0
 62
     2
  6
CONTINUOUS
 10
828.236450
 20
554.663940
 11
828.883179
 21
562.167358
  0
LINE
  8
LC-005-002-RND-0
 62
     2
  6
CONTINUOUS
 10
828.883179
 20
562.167358
 11
826.821960
 21
574.563904
  0
LINE
  8
LC-005-002-RND-0
 62
     2
  6
CONTINUOUS
 10
826.821960
 20
574.563904
 11
828.191650
 21
590.911865
  0
LINE
  8
LC-005-002-RND-0
 62
     2
  6
CONTINUOUS
 10
828.191650
 20
590.911865
 11
826.960815
 21
604.663940
  0
LINE
  8
LC-006-012-----0
 62
     2
  6
DASHED
 10
604.393555
 20
604.663940
 11
796.393555
 21
604.663940
  0
LINE
  8
LC-003-002-----0
 62
     1
  6
CONTINUOUS
 10
796.393555
 20
604.663940
 11
826.960815
 21
604.663940
  0
LINE
  8
LC-006-012-----0
 62
     2
  6
DASHED
 10
604.393555
 20
554.663940
 11
796.393555
 21
554.663940
  0
LINE
  8
LC-003-002-----0
 62
     1
  6
CONTINUOUS
 10
796.393555
 20
554.663940
 11
828.236450
 21
554.663940
  0
LINE
  8
LC-004-006-----0
 62
     2
  6
DASHDOT
 10
861.649109
 20
579.663940
 11
985.139709
 21
579.663940
  0
LINE
  8
LC-004-006-----0
 62
     2
  6
DASHDOT
 10
922.721863
 20
640.740234
 11
922.721863
 21
516.091431
  0
CIRCLE
  8
LC-003-002-----0
 62
     1
  6
CONTINUOUS
 10
922.721863
 20
579.663940
 40
25.000000
  0
CIRCLE
  8
LC-003-002-----0
 62
     1
  6
CONTINUOUS
 10
922.721863
 20
579.663940
 40
56.000000
  0
CIRCLE
  8
LC-006-012-----0
 62
     2
  6
DASHED
 10
922.721863
 20
579.663940
 40
37.500000
  0
CIRCLE
  8
LC-004-006-----0
 62
     2
  6
DASHDOT
 10
922.721863
 20
579.663940
 40
47.000000
  0
CIRCLE
  8
LC-003-002-----0
 62
     1
  6
CONTINUOUS
 10
922.721863
 20
626.663940
 40
7.500000
  0
CIRCLE
  8
LC-003-002-----0
 62
     1
  6
CONTINUOUS
 10
922.721863
 20
626.663940
 40
4.500000
  0
CIRCLE
  8
LC-003-002-----0
 62
     1
  6
CONTINUOUS
 10
875.721863
 20
579.663940
 40
4.500000
  0
CIRCLE
  8
LC-003-002-----0
 62
     1
  6
CONTINUOUS
 10
875.721863
 20
579.663940
 40
7.500000
  0
CIRCLE
  8
LC-003-002-----0
 62
     1
  6
CONTINUOUS
 10
922.721863
 20
532.663940
 40
7.500000
  0
CIRCLE
  8
LC-003-002-----0
 62
     1
  6
CONTINUOUS
 10
922.721863
 20
532.663940
 40
4.500000
  0
CIRCLE
  8
LC-003-002-----0
 62
     1
  6
CONTINUOUS
 10
969.721863
 20
579.663940
 40
4.500000
  0
CIRCLE
  8
LC-003-002-----0
 62
     1
  6
CONTINUOUS
 10
969.721863
 20
579.663940
 40
7.500000
  0
LINE
  8
LC-004-006-----0
 62
     2
  6
DASHDOT
 10
621.515198
 20
626.663940
 11
598.508850
 21
626.663940
  0
LINE
  8
LC-006-012-----0
 62
     2
  6
DASHED
 10
613.393555
 20
634.163940
 11
604.393555
 21
634.163940
  0
LINE
  8
LC-006-012-----0
 62
     2
  6
DASHED
 10
617.393555
 20
631.163940
 11
613.393555
 21
631.163940
  0
LINE
  8
LC-006-012-----0
 62
     2
  6
DASHED
 10
613.393555
 20
634.163940
 11
613.393555
 21
619.163940
  0
LINE
  8
LC-006-012-----0
 62
     2
  6
DASHED
 10
617.393555
 20
622.163940
 11
613.393555
 21
622.163940
  0
LINE
  8
LC-006-012-----0
 62
     2
  6
DASHED
 10
613.393555
 20
619.163940
 11
604.393555
 21
619.163940
  0
LINE
  8
LC-004-006-----0
 62
     2
  6
DASHDOT
 10
621.515198
 20
532.663940
 11
598.508850
 21
532.663940
  0
LINE
  8
LC-006-012-----0
 62
     2
  6
DASHED
 10
613.393555
 20
525.163940
 11
604.393555
 21
525.163940
  0
LINE
  8
LC-006-012-----0
 62
     2
  6
DASHED
 10
617.393555
 20
528.163940
 11
613.393555
 21
528.163940
  0
LINE
  8
LC-006-012-----0
 62
     2
  6
DASHED
 10
613.393555
 20
525.163940
 11
613.393555
 21
540.163940
  0
LINE
  8
LC-006-012-----0
 62
     2
  6
DASHED
 10
617.393555
 20
537.163940
 11
613.393555
 21
537.163940
  0
LINE
  8
LC-006-012-----0
 62
     2
  6
DASHED
 10
613.393555
 20
540.163940
 11
604.393555
 21
540.163940
  0
LINE
  8
LC-006-012-----0
 62
     2
  6
DASHED
 10
613.393555
 20
587.163940
 11
604.393555
 21
587.163940
  0
LINE
  8
LC-006-012-----0
 62
     2
  6
DASHED
 10
617.393555
 20
584.163940
 11
613.393555
 21
584.163940
  0
LINE
  8
LC-006-012-----0
 62
     2
  6
DASHED
 10
613.393555
 20
587.163940
 11
613.393555
 21
572.163940
  0
LINE
  8
LC-006-012-----0
 62
     2
  6
DASHED
 10
617.393555
 20
575.163940
 11
613.393555
 21
575.163940
  0
LINE
  8
LC-006-012-----0
 62
     2
  6
DASHED
 10
613.393555
 20
572.163940
 11
604.393555
 21
572.163940
  0
ARC
  8
LC-003-002-----0
 62
     1
  6
CONTINUOUS
 10
795.143555
 20
615.913940
 40
1.250000
 50
0.000000
 51
90.000003
  0
ARC
  8
LC-003-002-----0
 62
     1
  6
CONTINUOUS
 10
795.143555
 20
543.413940
 40
1.250000
 50
269.999997
 51
0.000000
  0
LINE
  8
LC-003-002-----0
 62
     1
  6
CONTINUOUS
 10
605.393555
 20
523.663940
 11
604.393555
 21
524.663940
  0
LINE
  8
LC-003-002-----0
 62
     1
  6
CONTINUOUS
 10
605.393555
 20
635.663940
 11
604.393555
 21
634.663940
  0
LINE
  8
LC-003-002-----0
 62
     1
  6
CONTINUOUS
 10
605.393555
 20
523.663940
 11
605.393555
 21
635.663940
  0
LINE
  8
LC-003-002-----0
 62
     1
  6
CONTINUOUS
 10
616.393555
 20
635.663940
 11
617.393555
 21
634.663940
  0
LINE
  8
LC-003-002-----0
 62
     1
  6
CONTINUOUS
 10
616.393555
 20
523.663940
 11
617.393555
 21
524.663940
  0
LINE
  8
LC-003-002-----0
 62
     1
  6
CONTINUOUS
 10
616.393555
 20
635.663940
 11
616.393555
 21
523.663940
  0
LINE
  8
LC-003-002-----0
 62
     1
  6
CONTINUOUS
 10
618.393555
 20
542.163940
 11
618.393555
 21
617.163940
  0
LINE
  8
LC-003-002-----0
 62
     1
  6
CONTINUOUS
 10
617.393555
 20
543.163940
 11
618.393555
 21
543.163940
  0
LINE
  8
LC-003-002-----0
 62
     1
  6
CONTINUOUS
 10
617.393555
 20
616.163940
 11
618.393555
 21
616.163940
  0
CIRCLE
  8
LC-003-002-----0
 62
     1
  6
CONTINUOUS
 10
922.721863
 20
579.663940
 40
55.000000
  0
ENDSEC
  0
EOF
