  0
SECTION
  2
HEADER
  9
$LIMMIN
 10
221.867477
 20
556.616455
  9
$LIMMAX
 10
496.190308
 20
629.303955
  9
$EXTMIN
 10
221.867477
 20
556.616455
  9
$EXTMAX
 10
496.190308
 20
629.303955
  0
ENDSEC
  0
SECTION
  2
TABLES
  0
TABLE
  2
LTYPE
 70
     3
  0
LTYPE
  2
CONTINUOUS
 70
    64
  3
Ausgezogene Linie
 72
    65
 73
     0
 40
0.0
  0
LTYPE
  2
DASHED
 70
    64
  3
__ __ __ __ __ __ __ __ __ __ __ __ __ __ __
 72
    65
 73
     2
 40
0.75
 49
0.5
 49
-0.25
  0
LTYPE
  2
DASHDOT
 70
    64
  3
__ . __ . __ . __ . __ . __ . __ . __ . __ . __
 72
    65
 73
     4
 40
1.0
 49
0.5
 49
-0.25
 49
0.0
 49
-0.25
  0
ENDTAB
  0
TABLE
  2
LAYER
 70
     4
  0
LAYER
  2
LC-003-002-----0
 70
    64
 62
     7
  6
CONTINUOUS
  0
LAYER
  2
LC-004-006-----0
 70
    64
 62
     7
  6
CONTINUOUS
  0
LAYER
  2
LC-006-012-----0
 70
    64
 62
     7
  6
CONTINUOUS
  0
LAYER
  2
LC-005-002-RND-0
 70
    64
 62
     7
  6
CONTINUOUS
  0
ENDTAB
  0
TABLE
  2
STYLE
 70
     1
  0
STYLE
  2
TXT8
 70
    64
 40
0.0
 41
1.0
 50
0.0
 71
     0
 42
3.500000
  3
TXT8
  4

  0
ENDTAB
  0
ENDSEC
  0
SECTION
  2
BLOCKS
  0
ENDSEC
  0
SECTION
  2
ENTITIES
  0
LINE
  8
LC-004-006-----0
 62
     2
  6
DASHDOT
 10
221.867477
 20
593.516907
 11
389.099823
 21
593.516907
  0
LINE
  8
LC-003-002-----0
 62
     1
  6
CONTINUOUS
 10
225.884705
 20
606.016907
 11
247.294037
 21
606.016907
  0
LINE
  8
LC-003-002-----0
 62
     1
  6
CONTINUOUS
 10
225.949768
 20
581.016907
 11
247.294037
 21
581.016907
  0
LINE
  8
LC-003-002-----0
 62
     1
  6
CONTINUOUS
 10
247.294037
 20
563.016907
 11
247.294037
 21
624.016907
  0
LINE
  8
LC-003-002-----0
 62
     1
  6
CONTINUOUS
 10
255.294037
 20
563.016907
 11
255.294037
 21
624.016907
  0
LINE
  8
LC-003-002-----0
 62
     1
  6
CONTINUOUS
 10
359.294037
 20
612.516907
 11
359.294037
 21
574.516907
  0
LINE
  8
LC-003-002-----0
 62
     1
  6
CONTINUOUS
 10
254.794037
 20
624.516907
 11
247.794037
 21
624.516907
  0
LINE
  8
LC-003-002-----0
 62
     1
  6
CONTINUOUS
 10
247.794037
 20
562.516907
 11
254.794037
 21
562.516907
  0
LINE
  8
LC-003-002-----0
 62
     1
  6
CONTINUOUS
 10
256.044037
 20
613.516907
 11
358.294037
 21
613.516907
  0
LINE
  8
LC-003-002-----0
 62
     1
  6
CONTINUOUS
 10
256.044037
 20
573.516907
 11
358.294037
 21
573.516907
  0
LINE
  8
LC-005-002-RND-0
 62
     2
  6
CONTINUOUS
 10
225.949768
 20
581.016907
 11
226.560501
 21
586.111206
  0
LINE
  8
LC-005-002-RND-0
 62
     2
  6
CONTINUOUS
 10
226.560501
 20
586.111206
 11
225.690582
 21
597.408447
  0
LINE
  8
LC-005-002-RND-0
 62
     2
  6
CONTINUOUS
 10
225.690582
 20
597.408447
 11
225.884705
 21
606.016907
  0
LINE
  8
LC-005-002-RND-0
 62
     2
  6
CONTINUOUS
 10
384.348114
 20
581.016907
 11
383.899414
 21
586.111206
  0
LINE
  8
LC-005-002-RND-0
 62
     2
  6
CONTINUOUS
 10
383.899414
 20
586.111206
 11
385.008331
 21
598.876465
  0
LINE
  8
LC-005-002-RND-0
 62
     2
  6
CONTINUOUS
 10
385.008331
 20
598.876465
 11
384.520050
 21
606.016907
  0
LINE
  8
LC-006-012-----0
 62
     2
  6
DASHED
 10
247.294037
 20
606.016907
 11
359.294037
 21
606.016907
  0
LINE
  8
LC-003-002-----0
 62
     1
  6
CONTINUOUS
 10
359.294037
 20
606.016907
 11
384.520050
 21
606.016907
  0
LINE
  8
LC-006-012-----0
 62
     2
  6
DASHED
 10
247.294037
 20
581.016907
 11
359.294037
 21
581.016907
  0
LINE
  8
LC-003-002-----0
 62
     1
  6
CONTINUOUS
 10
359.294037
 20
581.016907
 11
384.348114
 21
581.016907
  0
LINE
  8
LC-004-006-----0
 62
     2
  6
DASHDOT
 10
422.997986
 20
593.516907
 11
496.190308
 21
593.516907
  0
LINE
  8
LC-004-006-----0
 62
     2
  6
DASHDOT
 10
460.190491
 20
629.303955
 11
460.190491
 21
556.616455
  0
CIRCLE
  8
LC-003-002-----0
 62
     1
  6
CONTINUOUS
 10
460.190491
 20
593.516907
 40
12.500000
  0
CIRCLE
  8
LC-006-012-----0
 62
     2
  6
DASHED
 10
460.190491
 20
593.516907
 40
20.000000
  0
CIRCLE
  8
LC-003-002-----0
 62
     1
  6
CONTINUOUS
 10
460.190491
 20
593.516907
 40
31.000000
  0
CIRCLE
  8
LC-004-006-----0
 62
     2
  6
DASHDOT
 10
460.190491
 20
593.516907
 40
25.500000
  0
CIRCLE
  8
LC-003-002-----0
 62
     1
  6
CONTINUOUS
 10
460.190491
 20
619.016907
 40
5.000000
  0
CIRCLE
  8
LC-003-002-----0
 62
     1
  6
CONTINUOUS
 10
460.190491
 20
619.016907
 40
2.900000
  0
CIRCLE
  8
LC-003-002-----0
 62
     1
  6
CONTINUOUS
 10
434.690491
 20
593.516907
 40
5.000000
  0
CIRCLE
  8
LC-003-002-----0
 62
     1
  6
CONTINUOUS
 10
434.690491
 20
593.516907
 40
2.900000
  0
CIRCLE
  8
LC-003-002-----0
 62
     1
  6
CONTINUOUS
 10
460.190491
 20
568.016907
 40
5.000000
  0
CIRCLE
  8
LC-003-002-----0
 62
     1
  6
CONTINUOUS
 10
460.190491
 20
568.016907
 40
2.900000
  0
CIRCLE
  8
LC-003-002-----0
 62
     1
  6
CONTINUOUS
 10
485.690491
 20
593.516907
 40
2.900000
  0
CIRCLE
  8
LC-003-002-----0
 62
     1
  6
CONTINUOUS
 10
485.690491
 20
593.516907
 40
5.000000
  0
LINE
  8
LC-004-006-----0
 62
     2
  6
DASHDOT
 10
258.187622
 20
619.016907
 11
243.956924
 21
619.016907
  0
LINE
  8
LC-006-012-----0
 62
     2
  6
DASHED
 10
252.994034
 20
624.016907
 11
247.294037
 21
624.016907
  0
LINE
  8
LC-006-012-----0
 62
     2
  6
DASHED
 10
255.294037
 20
621.916870
 11
252.994034
 21
621.916870
  0
LINE
  8
LC-006-012-----0
 62
     2
  6
DASHED
 10
252.994034
 20
624.016907
 11
252.994034
 21
614.016907
  0
LINE
  8
LC-006-012-----0
 62
     2
  6
DASHED
 10
252.994034
 20
614.016907
 11
247.294037
 21
614.016907
  0
LINE
  8
LC-006-012-----0
 62
     2
  6
DASHED
 10
255.294037
 20
616.116882
 11
252.994034
 21
616.116882
  0
LINE
  8
LC-006-012-----0
 62
     2
  6
DASHED
 10
255.294037
 20
596.416870
 11
252.994034
 21
596.416870
  0
LINE
  8
LC-006-012-----0
 62
     2
  6
DASHED
 10
252.994034
 20
588.516907
 11
247.294037
 21
588.516907
  0
LINE
  8
LC-006-012-----0
 62
     2
  6
DASHED
 10
255.294037
 20
590.616882
 11
252.994034
 21
590.616882
  0
LINE
  8
LC-006-012-----0
 62
     2
  6
DASHED
 10
252.994034
 20
598.516907
 11
252.994034
 21
588.516907
  0
LINE
  8
LC-006-012-----0
 62
     2
  6
DASHED
 10
252.994034
 20
598.516907
 11
247.294037
 21
598.516907
  0
LINE
  8
LC-004-006-----0
 62
     2
  6
DASHDOT
 10
258.187622
 20
568.016907
 11
243.956924
 21
568.016907
  0
LINE
  8
LC-006-012-----0
 62
     2
  6
DASHED
 10
252.994034
 20
563.016907
 11
247.294037
 21
563.016907
  0
LINE
  8
LC-006-012-----0
 62
     2
  6
DASHED
 10
255.294037
 20
565.116882
 11
252.994034
 21
565.116882
  0
LINE
  8
LC-006-012-----0
 62
     2
  6
DASHED
 10
252.994034
 20
563.016907
 11
252.994034
 21
573.016907
  0
LINE
  8
LC-006-012-----0
 62
     2
  6
DASHED
 10
252.994034
 20
573.016907
 11
247.294037
 21
573.016907
  0
LINE
  8
LC-006-012-----0
 62
     2
  6
DASHED
 10
255.294037
 20
570.916870
 11
252.994034
 21
570.916870
  0
LINE
  8
LC-003-002-----0
 62
     1
  6
CONTINUOUS
 10
247.794037
 20
562.516907
 11
247.294037
 21
563.016907
  0
LINE
  8
LC-003-002-----0
 62
     1
  6
CONTINUOUS
 10
247.294037
 20
624.016907
 11
247.794037
 21
624.516907
  0
LINE
  8
LC-003-002-----0
 62
     1
  6
CONTINUOUS
 10
247.794037
 20
562.516907
 11
247.794037
 21
624.516907
  0
LINE
  8
LC-003-002-----0
 62
     1
  6
CONTINUOUS
 10
255.294037
 20
624.016907
 11
254.794037
 21
624.516907
  0
LINE
  8
LC-003-002-----0
 62
     1
  6
CONTINUOUS
 10
254.794037
 20
562.516907
 11
255.294037
 21
563.016907
  0
LINE
  8
LC-003-002-----0
 62
     1
  6
CONTINUOUS
 10
254.794037
 20
624.516907
 11
254.794037
 21
562.516907
  0
ARC
  8
LC-003-002-----0
 62
     1
  6
CONTINUOUS
 10
358.294037
 20
612.516907
 40
1.000000
 50
0.000000
 51
90.000003
  0
ARC
  8
LC-003-002-----0
 62
     1
  6
CONTINUOUS
 10
358.294037
 20
574.516907
 40
1.000000
 50
269.999997
 51
0.000000
  0
LINE
  8
LC-003-002-----0
 62
     1
  6
CONTINUOUS
 10
256.044037
 20
573.516907
 11
256.044037
 21
613.516907
  0
LINE
  8
LC-003-002-----0
 62
     1
  6
CONTINUOUS
 10
255.294037
 20
574.266907
 11
256.044037
 21
574.266907
  0
LINE
  8
LC-003-002-----0
 62
     1
  6
CONTINUOUS
 10
255.294037
 20
612.766907
 11
256.044037
 21
612.766907
  0
CIRCLE
  8
LC-003-002-----0
 62
     1
  6
CONTINUOUS
 10
460.190491
 20
593.516907
 40
30.500000
  0
ENDSEC
  0
EOF
