  0
SECTION
  2
HEADER
  9
$LIMMIN
 10
-86.486023
 20
226.564774
  9
$LIMMAX
 10
115.081375
 20
282.043823
  9
$EXTMIN
 10
-86.486023
 20
226.564774
  9
$EXTMAX
 10
115.081375
 20
282.043823
  0
ENDSEC
  0
SECTION
  2
TABLES
  0
TABLE
  2
LTYPE
 70
     3
  0
LTYPE
  2
CONTINUOUS
 70
    64
  3
Ausgezogene Linie
 72
    65
 73
     0
 40
0.0
  0
LTYPE
  2
DASHED
 70
    64
  3
__ __ __ __ __ __ __ __ __ __ __ __ __ __ __
 72
    65
 73
     2
 40
0.75
 49
0.5
 49
-0.25
  0
LTYPE
  2
DASHDOT
 70
    64
  3
__ . __ . __ . __ . __ . __ . __ . __ . __ . __
 72
    65
 73
     4
 40
1.0
 49
0.5
 49
-0.25
 49
0.0
 49
-0.25
  0
ENDTAB
  0
TABLE
  2
LAYER
 70
     4
  0
LAYER
  2
LC-003-002-----0
 70
    64
 62
     7
  6
CONTINUOUS
  0
LAYER
  2
LC-004-006-----0
 70
    64
 62
     7
  6
CONTINUOUS
  0
LAYER
  2
LC-006-012-----0
 70
    64
 62
     7
  6
CONTINUOUS
  0
LAYER
  2
LC-005-002-RND-0
 70
    64
 62
     7
  6
CONTINUOUS
  0
ENDTAB
  0
TABLE
  2
STYLE
 70
     1
  0
STYLE
  2
TXT8
 70
    64
 40
0.0
 41
1.0
 50
0.0
 71
     0
 42
3.500000
  3
TXT8
  4

  0
ENDTAB
  0
ENDSEC
  0
SECTION
  2
BLOCKS
  0
ENDSEC
  0
SECTION
  2
ENTITIES
  0
LINE
  8
LC-004-006-----0
 62
     2
  6
DASHDOT
 10
-86.486023
 20
254.131790
 11
20.922548
 21
254.131790
  0
LINE
  8
LC-003-002-----0
 62
     1
  6
CONTINUOUS
 10
-63.153111
 20
267.131775
 11
-2.153110
 21
267.131775
  0
LINE
  8
LC-003-002-----0
 62
     1
  6
CONTINUOUS
 10
-63.153111
 20
241.131790
 11
-2.153110
 21
241.131790
  0
LINE
  8
LC-003-002-----0
 62
     1
  6
CONTINUOUS
 10
-69.653107
 20
276.631775
 11
-69.653107
 21
231.631805
  0
LINE
  8
LC-003-002-----0
 62
     1
  6
CONTINUOUS
 10
-63.653111
 20
276.631775
 11
-63.653111
 21
231.631805
  0
LINE
  8
LC-003-002-----0
 62
     1
  6
CONTINUOUS
 10
-1.653110
 20
266.631775
 11
-1.653110
 21
241.631805
  0
LINE
  8
LC-003-002-----0
 62
     1
  6
CONTINUOUS
 10
-64.153107
 20
277.131775
 11
-69.153107
 21
277.131775
  0
LINE
  8
LC-003-002-----0
 62
     1
  6
CONTINUOUS
 10
-64.153107
 20
231.131790
 11
-69.153107
 21
231.131790
  0
LINE
  8
LC-003-002-----0
 62
     1
  6
CONTINUOUS
 10
-83.022614
 20
262.131775
 11
-69.653107
 21
262.131775
  0
LINE
  8
LC-003-002-----0
 62
     1
  6
CONTINUOUS
 10
-84.429398
 20
246.131790
 11
-69.653107
 21
246.131790
  0
LINE
  8
LC-005-002-RND-0
 62
     2
  6
CONTINUOUS
 10
-84.429398
 20
246.131790
 11
-83.393082
 21
249.821808
  0
LINE
  8
LC-005-002-RND-0
 62
     2
  6
CONTINUOUS
 10
-83.393082
 20
249.821808
 11
-84.513184
 21
257.806976
  0
LINE
  8
LC-005-002-RND-0
 62
     2
  6
CONTINUOUS
 10
-84.513184
 20
257.806976
 11
-83.022614
 21
262.131775
  0
LINE
  8
LC-005-002-RND-0
 62
     2
  6
CONTINUOUS
 10
18.008591
 20
246.131790
 11
18.855768
 21
249.683090
  0
LINE
  8
LC-005-002-RND-0
 62
     2
  6
CONTINUOUS
 10
18.855768
 20
249.683090
 11
17.829605
 21
257.806976
  0
LINE
  8
LC-005-002-RND-0
 62
     2
  6
CONTINUOUS
 10
17.829605
 20
257.806976
 11
18.410835
 21
262.131775
  0
LINE
  8
LC-006-012-----0
 62
     2
  6
DASHED
 10
-69.653107
 20
262.131775
 11
-1.653113
 21
262.131775
  0
LINE
  8
LC-003-002-----0
 62
     1
  6
CONTINUOUS
 10
-1.653110
 20
262.131775
 11
18.410835
 21
262.131775
  0
LINE
  8
LC-006-012-----0
 62
     2
  6
DASHED
 10
-69.653107
 20
246.131790
 11
-1.653113
 21
246.131790
  0
LINE
  8
LC-003-002-----0
 62
     1
  6
CONTINUOUS
 10
-1.653110
 20
246.131790
 11
18.008591
 21
246.131790
  0
LINE
  8
LC-004-006-----0
 62
     2
  6
DASHDOT
 10
60.209648
 20
254.131790
 11
115.081375
 21
254.131790
  0
LINE
  8
LC-004-006-----0
 62
     2
  6
DASHDOT
 10
88.514946
 20
282.043823
 11
88.514946
 21
226.564774
  0
CIRCLE
  8
LC-003-002-----0
 62
     1
  6
CONTINUOUS
 10
88.514946
 20
254.131790
 40
8.000000
  0
CIRCLE
  8
LC-003-002-----0
 62
     1
  6
CONTINUOUS
 10
88.514946
 20
254.131790
 40
23.000000
  0
CIRCLE
  8
LC-006-012-----0
 62
     2
  6
DASHED
 10
88.514946
 20
254.131790
 40
13.000000
  0
CIRCLE
  8
LC-004-006-----0
 62
     2
  6
DASHDOT
 10
88.514946
 20
254.131790
 40
18.000000
  0
CIRCLE
  8
LC-003-002-----0
 62
     1
  6
CONTINUOUS
 10
88.514946
 20
272.131775
 40
4.000000
  0
CIRCLE
  8
LC-003-002-----0
 62
     1
  6
CONTINUOUS
 10
88.514946
 20
272.131775
 40
2.400000
  0
CIRCLE
  8
LC-003-002-----0
 62
     1
  6
CONTINUOUS
 10
106.514946
 20
254.131790
 40
4.000000
  0
CIRCLE
  8
LC-003-002-----0
 62
     1
  6
CONTINUOUS
 10
106.514946
 20
254.131790
 40
2.400000
  0
CIRCLE
  8
LC-003-002-----0
 62
     1
  6
CONTINUOUS
 10
70.514946
 20
254.131790
 40
4.000000
  0
CIRCLE
  8
LC-003-002-----0
 62
     1
  6
CONTINUOUS
 10
70.514946
 20
254.131790
 40
2.400000
  0
CIRCLE
  8
LC-003-002-----0
 62
     1
  6
CONTINUOUS
 10
88.514946
 20
236.131790
 40
4.000000
  0
CIRCLE
  8
LC-003-002-----0
 62
     1
  6
CONTINUOUS
 10
88.514946
 20
236.131790
 40
2.400000
  0
LINE
  8
LC-004-006-----0
 62
     2
  6
DASHDOT
 10
-60.740505
 20
272.131775
 11
-72.662956
 21
272.131775
  0
LINE
  8
LC-006-012-----0
 62
     2
  6
DASHED
 10
-63.653111
 20
274.531799
 11
-65.153107
 21
274.531799
  0
LINE
  8
LC-006-012-----0
 62
     2
  6
DASHED
 10
-65.153107
 20
276.131775
 11
-69.653107
 21
276.131775
  0
LINE
  8
LC-006-012-----0
 62
     2
  6
DASHED
 10
-65.153107
 20
276.131775
 11
-65.153107
 21
268.131775
  0
LINE
  8
LC-006-012-----0
 62
     2
  6
DASHED
 10
-65.153107
 20
268.131775
 11
-69.653107
 21
268.131775
  0
LINE
  8
LC-006-012-----0
 62
     2
  6
DASHED
 10
-63.653111
 20
269.731781
 11
-65.153107
 21
269.731781
  0
LINE
  8
LC-004-006-----0
 62
     2
  6
DASHDOT
 10
-60.740505
 20
236.131790
 11
-72.662956
 21
236.131790
  0
LINE
  8
LC-006-012-----0
 62
     2
  6
DASHED
 10
-63.653111
 20
233.731781
 11
-65.153107
 21
233.731781
  0
LINE
  8
LC-006-012-----0
 62
     2
  6
DASHED
 10
-65.153107
 20
232.131790
 11
-69.653107
 21
232.131790
  0
LINE
  8
LC-006-012-----0
 62
     2
  6
DASHED
 10
-65.153107
 20
232.131790
 11
-65.153107
 21
240.131790
  0
LINE
  8
LC-006-012-----0
 62
     2
  6
DASHED
 10
-65.153107
 20
240.131790
 11
-69.653107
 21
240.131790
  0
LINE
  8
LC-006-012-----0
 62
     2
  6
DASHED
 10
-63.653111
 20
238.531784
 11
-65.153107
 21
238.531784
  0
LINE
  8
LC-006-012-----0
 62
     2
  6
DASHED
 10
-63.653111
 20
256.531799
 11
-65.153107
 21
256.531799
  0
LINE
  8
LC-006-012-----0
 62
     2
  6
DASHED
 10
-65.153107
 20
258.131775
 11
-69.653107
 21
258.131775
  0
LINE
  8
LC-006-012-----0
 62
     2
  6
DASHED
 10
-65.153107
 20
258.131775
 11
-65.153107
 21
250.131805
  0
LINE
  8
LC-006-012-----0
 62
     2
  6
DASHED
 10
-65.153107
 20
250.131790
 11
-69.653107
 21
250.131790
  0
LINE
  8
LC-006-012-----0
 62
     2
  6
DASHED
 10
-63.653111
 20
251.731781
 11
-65.153107
 21
251.731781
  0
LINE
  8
LC-003-002-----0
 62
     1
  6
CONTINUOUS
 10
-69.153107
 20
231.131790
 11
-69.653107
 21
231.631790
  0
LINE
  8
LC-003-002-----0
 62
     1
  6
CONTINUOUS
 10
-69.153107
 20
277.131775
 11
-69.653107
 21
276.631775
  0
LINE
  8
LC-003-002-----0
 62
     1
  6
CONTINUOUS
 10
-69.153107
 20
231.131790
 11
-69.153107
 21
277.131775
  0
LINE
  8
LC-003-002-----0
 62
     1
  6
CONTINUOUS
 10
-63.653111
 20
276.631775
 11
-64.153107
 21
277.131775
  0
LINE
  8
LC-003-002-----0
 62
     1
  6
CONTINUOUS
 10
-63.653111
 20
231.631790
 11
-64.153107
 21
231.131790
  0
LINE
  8
LC-003-002-----0
 62
     1
  6
CONTINUOUS
 10
-64.153107
 20
277.131775
 11
-64.153107
 21
231.131805
  0
ARC
  8
LC-003-002-----0
 62
     1
  6
CONTINUOUS
 10
-2.153110
 20
266.631775
 40
0.500000
 50
0.000000
 51
90.000003
  0
ARC
  8
LC-003-002-----0
 62
     1
  6
CONTINUOUS
 10
-2.153110
 20
241.631790
 40
0.500000
 50
269.999997
 51
0.000000
  0
LINE
  8
LC-003-002-----0
 62
     1
  6
CONTINUOUS
 10
-63.153111
 20
267.131775
 11
-63.153111
 21
241.131805
  0
LINE
  8
LC-003-002-----0
 62
     1
  6
CONTINUOUS
 10
-63.653111
 20
266.631775
 11
-63.153111
 21
266.631775
  0
LINE
  8
LC-003-002-----0
 62
     1
  6
CONTINUOUS
 10
-63.653111
 20
241.631790
 11
-63.153111
 21
241.631790
  0
CIRCLE
  8
LC-003-002-----0
 62
     1
  6
CONTINUOUS
 10
88.514946
 20
254.131790
 40
22.500000
  0
ENDSEC
  0
EOF
