  0
SECTION
  2
HEADER
  9
$LIMMIN
 10
133.531174
 20
70.730797
  9
$LIMMAX
 10
333.469513
 20
132.794373
  9
$EXTMIN
 10
133.531174
 20
70.730797
  9
$EXTMAX
 10
333.469513
 20
132.794373
  0
ENDSEC
  0
SECTION
  2
TABLES
  0
TABLE
  2
LTYPE
 70
     3
  0
LTYPE
  2
CONTINUOUS
 70
    64
  3
Ausgezogene Linie
 72
    65
 73
     0
 40
0.0
  0
LTYPE
  2
DASHED
 70
    64
  3
__ __ __ __ __ __ __ __ __ __ __ __ __ __ __
 72
    65
 73
     2
 40
0.75
 49
0.5
 49
-0.25
  0
LTYPE
  2
DASHDOT
 70
    64
  3
__ . __ . __ . __ . __ . __ . __ . __ . __ . __
 72
    65
 73
     4
 40
1.0
 49
0.5
 49
-0.25
 49
0.0
 49
-0.25
  0
ENDTAB
  0
TABLE
  2
LAYER
 70
     4
  0
LAYER
  2
LC-003-002-----0
 70
    64
 62
     7
  6
CONTINUOUS
  0
LAYER
  2
LC-004-006-----0
 70
    64
 62
     7
  6
CONTINUOUS
  0
LAYER
  2
LC-006-012-----0
 70
    64
 62
     7
  6
CONTINUOUS
  0
LAYER
  2
LC-005-002-RND-0
 70
    64
 62
     7
  6
CONTINUOUS
  0
ENDTAB
  0
TABLE
  2
STYLE
 70
     1
  0
STYLE
  2
TXT8
 70
    64
 40
0.0
 41
1.0
 50
0.0
 71
     0
 42
3.500000
  3
TXT8
  4

  0
ENDTAB
  0
ENDSEC
  0
SECTION
  2
BLOCKS
  0
ENDSEC
  0
SECTION
  2
ENTITIES
  0
LINE
  8
LC-004-006-----0
 62
     2
  6
DASHDOT
 10
133.531174
 20
101.768005
 11
250.181107
 21
101.768005
  0
LINE
  8
LC-003-002-----0
 62
     1
  6
CONTINUOUS
 10
149.530396
 20
117.768005
 11
155.780396
 21
117.768005
  0
LINE
  8
LC-003-002-----0
 62
     1
  6
CONTINUOUS
 10
149.530396
 20
85.768005
 11
155.780396
 21
85.768005
  0
LINE
  8
LC-003-002-----0
 62
     1
  6
CONTINUOUS
 10
156.530396
 20
128.768005
 11
164.530396
 21
128.768005
  0
LINE
  8
LC-003-002-----0
 62
     1
  6
CONTINUOUS
 10
156.530396
 20
74.768005
 11
164.530396
 21
74.768005
  0
LINE
  8
LC-003-002-----0
 62
     1
  6
CONTINUOUS
 10
156.530396
 20
128.768005
 11
156.530396
 21
74.768005
  0
LINE
  8
LC-003-002-----0
 62
     1
  6
CONTINUOUS
 10
164.530396
 20
128.768005
 11
164.530396
 21
74.768005
  0
LINE
  8
LC-003-002-----0
 62
     1
  6
CONTINUOUS
 10
148.530396
 20
116.768005
 11
148.530396
 21
86.768005
  0
LINE
  8
LC-003-002-----0
 62
     1
  6
CONTINUOUS
 10
228.530396
 20
116.768005
 11
228.530396
 21
86.768005
  0
LINE
  8
LC-003-002-----0
 62
     1
  6
CONTINUOUS
 10
136.208054
 20
111.768005
 11
148.530396
 21
111.768005
  0
LINE
  8
LC-003-002-----0
 62
     1
  6
CONTINUOUS
 10
135.745468
 20
91.768005
 11
148.530396
 21
91.768005
  0
LINE
  8
LC-005-002-RND-0
 62
     2
  6
CONTINUOUS
 10
135.745468
 20
91.768005
 11
135.292770
 21
95.782722
  0
LINE
  8
LC-005-002-RND-0
 62
     2
  6
CONTINUOUS
 10
135.292770
 20
95.782722
 11
137.046844
 21
104.390327
  0
LINE
  8
LC-005-002-RND-0
 62
     2
  6
CONTINUOUS
 10
137.046844
 20
104.390327
 11
136.208054
 21
111.768005
  0
LINE
  8
LC-005-002-RND-0
 62
     2
  6
CONTINUOUS
 10
246.716599
 20
91.768005
 11
247.260147
 21
95.638214
  0
LINE
  8
LC-005-002-RND-0
 62
     2
  6
CONTINUOUS
 10
247.260147
 20
95.638214
 11
246.085754
 21
107.283615
  0
LINE
  8
LC-005-002-RND-0
 62
     2
  6
CONTINUOUS
 10
246.085754
 20
107.283615
 11
246.642548
 21
111.768005
  0
LINE
  8
LC-004-006-----0
 62
     2
  6
DASHDOT
 10
286.888062
 20
101.768005
 11
333.469513
 21
101.768005
  0
LINE
  8
LC-003-002-----0
 62
     1
  6
CONTINUOUS
 10
165.280396
 20
117.768005
 11
227.530396
 21
117.768005
  0
LINE
  8
LC-003-002-----0
 62
     1
  6
CONTINUOUS
 10
165.280396
 20
85.768005
 11
227.530396
 21
85.768005
  0
LINE
  8
LC-006-012-----0
 62
     2
  6
DASHED
 10
148.530396
 20
111.768005
 11
228.530396
 21
111.768005
  0
LINE
  8
LC-003-002-----0
 62
     1
  6
CONTINUOUS
 10
228.530396
 20
111.768005
 11
246.642548
 21
111.768005
  0
LINE
  8
LC-006-012-----0
 62
     2
  6
DASHED
 10
148.530396
 20
91.768005
 11
228.530396
 21
91.768005
  0
LINE
  8
LC-003-002-----0
 62
     1
  6
CONTINUOUS
 10
228.530396
 20
91.768005
 11
246.716599
 21
91.768005
  0
LINE
  8
LC-004-006-----0
 62
     2
  6
DASHDOT
 10
310.334503
 20
132.794373
 11
310.334503
 21
70.730797
  0
CIRCLE
  8
LC-003-002-----0
 62
     1
  6
CONTINUOUS
 10
310.334503
 20
101.768005
 40
10.000000
  0
CIRCLE
  8
LC-003-002-----0
 62
     1
  6
CONTINUOUS
 10
310.334503
 20
101.768005
 40
16.000000
  0
ARC
  8
LC-003-002-----0
 62
     1
  6
CONTINUOUS
 10
310.334503
 20
101.768005
 40
27.000000
 50
225.275092
 51
314.724913
  0
LINE
  8
LC-003-002-----0
 62
     1
  6
CONTINUOUS
 10
329.334503
 20
120.951332
 11
329.334503
 21
82.584679
  0
LINE
  8
LC-003-002-----0
 62
     1
  6
CONTINUOUS
 10
291.334503
 20
120.951332
 11
291.334503
 21
82.584679
  0
ARC
  8
LC-003-002-----0
 62
     1
  6
CONTINUOUS
 10
310.334503
 20
101.768005
 40
27.000000
 50
45.275087
 51
134.724908
  0
LINE
  8
LC-004-006-----0
 62
     2
  6
DASHDOT
 10
291.951385
 20
119.768005
 11
304.832001
 21
119.768005
  0
LINE
  8
LC-004-006-----0
 62
     2
  6
DASHDOT
 10
298.334503
 20
126.350426
 11
298.334503
 21
113.415726
  0
CIRCLE
  8
LC-006-012-----0
 62
     2
  6
DASHED
 10
298.334503
 20
119.768005
 40
5.000000
  0
CIRCLE
  8
LC-003-002-----0
 62
     1
  6
CONTINUOUS
 10
298.334503
 20
119.768005
 40
2.900000
  0
LINE
  8
LC-004-006-----0
 62
     2
  6
DASHDOT
 10
291.951385
 20
83.768005
 11
304.832001
 21
83.768005
  0
LINE
  8
LC-004-006-----0
 62
     2
  6
DASHDOT
 10
298.334503
 20
77.185585
 11
298.334503
 21
90.120285
  0
CIRCLE
  8
LC-006-012-----0
 62
     2
  6
DASHED
 10
298.334503
 20
83.768005
 40
5.000000
  0
CIRCLE
  8
LC-003-002-----0
 62
     1
  6
CONTINUOUS
 10
298.334503
 20
83.768005
 40
2.900000
  0
LINE
  8
LC-004-006-----0
 62
     2
  6
DASHDOT
 10
328.717621
 20
119.768005
 11
315.837036
 21
119.768005
  0
LINE
  8
LC-004-006-----0
 62
     2
  6
DASHDOT
 10
322.334503
 20
126.350426
 11
322.334503
 21
113.415726
  0
CIRCLE
  8
LC-006-012-----0
 62
     2
  6
DASHED
 10
322.334503
 20
119.768005
 40
5.000000
  0
CIRCLE
  8
LC-003-002-----0
 62
     1
  6
CONTINUOUS
 10
322.334503
 20
119.768005
 40
2.900000
  0
LINE
  8
LC-004-006-----0
 62
     2
  6
DASHDOT
 10
328.717621
 20
83.768005
 11
315.837036
 21
83.768005
  0
LINE
  8
LC-004-006-----0
 62
     2
  6
DASHDOT
 10
322.334503
 20
77.185585
 11
322.334503
 21
90.120285
  0
CIRCLE
  8
LC-006-012-----0
 62
     2
  6
DASHED
 10
322.334503
 20
83.768005
 40
5.000000
  0
CIRCLE
  8
LC-003-002-----0
 62
     1
  6
CONTINUOUS
 10
322.334503
 20
83.768005
 40
2.900000
  0
LINE
  8
LC-004-006-----0
 62
     2
  6
DASHDOT
 10
167.523895
 20
119.768005
 11
153.134323
 21
119.768005
  0
LINE
  8
LC-006-012-----0
 62
     2
  6
DASHED
 10
164.530396
 20
124.768005
 11
158.830399
 21
124.768005
  0
LINE
  8
LC-006-012-----0
 62
     2
  6
DASHED
 10
158.830399
 20
122.668007
 11
156.530396
 21
122.668007
  0
LINE
  8
LC-006-012-----0
 62
     2
  6
DASHED
 10
158.830399
 20
124.768005
 11
158.830399
 21
114.768005
  0
LINE
  8
LC-006-012-----0
 62
     2
  6
DASHED
 10
158.830399
 20
116.868004
 11
156.530396
 21
116.868004
  0
LINE
  8
LC-006-012-----0
 62
     2
  6
DASHED
 10
164.530396
 20
114.768005
 11
158.830399
 21
114.768005
  0
LINE
  8
LC-004-006-----0
 62
     2
  6
DASHDOT
 10
167.523895
 20
83.768005
 11
153.134323
 21
83.768005
  0
LINE
  8
LC-006-012-----0
 62
     2
  6
DASHED
 10
164.530396
 20
78.768005
 11
158.830399
 21
78.768005
  0
LINE
  8
LC-006-012-----0
 62
     2
  6
DASHED
 10
158.830399
 20
80.868004
 11
156.530396
 21
80.868004
  0
LINE
  8
LC-006-012-----0
 62
     2
  6
DASHED
 10
158.830399
 20
78.768005
 11
158.830399
 21
88.768005
  0
LINE
  8
LC-006-012-----0
 62
     2
  6
DASHED
 10
158.830399
 20
86.668007
 11
156.530396
 21
86.668007
  0
LINE
  8
LC-006-012-----0
 62
     2
  6
DASHED
 10
164.530396
 20
88.768005
 11
158.830399
 21
88.768005
  0
LINE
  8
LC-003-002-----0
 62
     1
  6
CONTINUOUS
 10
155.780396
 20
117.768005
 11
155.780396
 21
85.768005
  0
LINE
  8
LC-003-002-----0
 62
     1
  6
CONTINUOUS
 10
165.280396
 20
117.768005
 11
165.280396
 21
85.768005
  0
LINE
  8
LC-003-002-----0
 62
     1
  6
CONTINUOUS
 10
155.780396
 20
86.518005
 11
156.530396
 21
86.518005
  0
LINE
  8
LC-003-002-----0
 62
     1
  6
CONTINUOUS
 10
155.780396
 20
117.018005
 11
156.530396
 21
117.018005
  0
LINE
  8
LC-003-002-----0
 62
     1
  6
CONTINUOUS
 10
164.530396
 20
117.018005
 11
165.280396
 21
117.018005
  0
LINE
  8
LC-003-002-----0
 62
     1
  6
CONTINUOUS
 10
164.530396
 20
86.518005
 11
165.280396
 21
86.518005
  0
ARC
  8
LC-003-002-----0
 62
     1
  6
CONTINUOUS
 10
149.530396
 20
116.768005
 40
1.000000
 50
90.000003
 51
180.000009
  0
ARC
  8
LC-003-002-----0
 62
     1
  6
CONTINUOUS
 10
149.530396
 20
86.768005
 40
1.000000
 50
180.000009
 51
269.999997
  0
ARC
  8
LC-003-002-----0
 62
     1
  6
CONTINUOUS
 10
227.530396
 20
86.768005
 40
1.000000
 50
269.999997
 51
0.000000
  0
ARC
  8
LC-003-002-----0
 62
     1
  6
CONTINUOUS
 10
227.530396
 20
116.768005
 40
1.000000
 50
0.000000
 51
90.000003
  0
LINE
  8
LC-003-002-----0
 62
     1
  6
CONTINUOUS
 10
164.530396
 20
120.951332
 11
156.530396
 21
120.951332
  0
LINE
  8
LC-003-002-----0
 62
     1
  6
CONTINUOUS
 10
164.530396
 20
82.584679
 11
156.530396
 21
82.584679
  0
LINE
  8
LC-005-002-RND-0
 62
     2
  6
CONTINUOUS
 10
156.530396
 20
82.584679
 11
164.530396
 21
120.951332
  0
LINE
  8
LC-005-002-RND-0
 62
     2
  6
CONTINUOUS
 10
164.530396
 20
82.584679
 11
156.530396
 21
120.951332
  0
ENDSEC
  0
EOF
