  0
SECTION
  2
HEADER
  9
$LIMMIN
 10
293.362915
 20
254.606995
  9
$LIMMAX
 10
578.498413
 20
366.177795
  9
$EXTMIN
 10
293.362915
 20
254.606995
  9
$EXTMAX
 10
578.498413
 20
366.177795
  0
ENDSEC
  0
SECTION
  2
TABLES
  0
TABLE
  2
LTYPE
 70
     3
  0
LTYPE
  2
CONTINUOUS
 70
    64
  3
Ausgezogene Linie
 72
    65
 73
     0
 40
0.0
  0
LTYPE
  2
DASHED
 70
    64
  3
__ __ __ __ __ __ __ __ __ __ __ __ __ __ __
 72
    65
 73
     2
 40
0.75
 49
0.5
 49
-0.25
  0
LTYPE
  2
DASHDOT
 70
    64
  3
__ . __ . __ . __ . __ . __ . __ . __ . __ . __
 72
    65
 73
     4
 40
1.0
 49
0.5
 49
-0.25
 49
0.0
 49
-0.25
  0
ENDTAB
  0
TABLE
  2
LAYER
 70
     4
  0
LAYER
  2
LC-003-002-----0
 70
    64
 62
     7
  6
CONTINUOUS
  0
LAYER
  2
LC-004-006-----0
 70
    64
 62
     7
  6
CONTINUOUS
  0
LAYER
  2
LC-006-012-----0
 70
    64
 62
     7
  6
CONTINUOUS
  0
LAYER
  2
LC-005-002-RND-0
 70
    64
 62
     7
  6
CONTINUOUS
  0
ENDTAB
  0
TABLE
  2
STYLE
 70
     1
  0
STYLE
  2
TXT8
 70
    64
 40
0.0
 41
1.0
 50
0.0
 71
     0
 42
3.500000
  3
TXT8
  4

  0
ENDTAB
  0
ENDSEC
  0
SECTION
  2
BLOCKS
  0
ENDSEC
  0
SECTION
  2
ENTITIES
  0
LINE
  8
LC-004-006-----0
 62
     2
  6
DASHDOT
 10
293.362915
 20
309.406494
 11
435.437775
 21
309.406494
  0
LINE
  8
LC-003-002-----0
 62
     1
  6
CONTINUOUS
 10
333.983643
 20
340.406494
 11
398.733643
 21
340.406494
  0
LINE
  8
LC-003-002-----0
 62
     1
  6
CONTINUOUS
 10
333.983643
 20
278.406494
 11
398.733643
 21
278.406494
  0
LINE
  8
LC-003-002-----0
 62
     1
  6
CONTINUOUS
 10
320.983643
 20
358.406494
 11
331.983643
 21
358.406494
  0
LINE
  8
LC-003-002-----0
 62
     1
  6
CONTINUOUS
 10
331.983643
 20
260.406494
 11
320.983643
 21
260.406494
  0
LINE
  8
LC-003-002-----0
 62
     1
  6
CONTINUOUS
 10
319.983643
 20
357.406494
 11
319.983643
 21
261.406494
  0
LINE
  8
LC-003-002-----0
 62
     1
  6
CONTINUOUS
 10
332.983643
 20
357.406494
 11
332.983643
 21
261.406494
  0
LINE
  8
LC-003-002-----0
 62
     1
  6
CONTINUOUS
 10
399.983643
 20
339.156494
 11
399.983643
 21
279.656494
  0
LINE
  8
LC-003-002-----0
 62
     1
  6
CONTINUOUS
 10
301.193787
 20
329.406494
 11
319.983643
 21
329.406494
  0
LINE
  8
LC-003-002-----0
 62
     1
  6
CONTINUOUS
 10
298.422211
 20
289.406494
 11
319.983643
 21
289.406494
  0
LINE
  8
LC-005-002-RND-0
 62
     2
  6
CONTINUOUS
 10
298.422211
 20
289.406494
 11
300.159729
 21
296.255402
  0
LINE
  8
LC-005-002-RND-0
 62
     2
  6
CONTINUOUS
 10
300.159729
 20
296.255402
 11
297.540405
 21
313.934418
  0
LINE
  8
LC-005-002-RND-0
 62
     2
  6
CONTINUOUS
 10
297.540405
 20
313.934418
 11
302.067139
 21
322.964630
  0
LINE
  8
LC-005-002-RND-0
 62
     2
  6
CONTINUOUS
 10
302.067139
 20
322.964630
 11
301.193787
 21
329.406494
  0
LINE
  8
LC-005-002-RND-0
 62
     2
  6
CONTINUOUS
 10
430.322357
 20
289.406494
 11
431.434906
 21
295.610779
  0
LINE
  8
LC-005-002-RND-0
 62
     2
  6
CONTINUOUS
 10
431.434906
 20
295.610779
 11
428.654419
 21
303.867432
  0
LINE
  8
LC-005-002-RND-0
 62
     2
  6
CONTINUOUS
 10
428.654419
 20
303.867432
 11
431.609558
 21
316.770782
  0
LINE
  8
LC-005-002-RND-0
 62
     2
  6
CONTINUOUS
 10
431.609558
 20
316.770782
 11
430.263306
 21
329.406494
  0
LINE
  8
LC-006-012-----0
 62
     2
  6
DASHED
 10
319.983643
 20
329.406494
 11
399.983643
 21
329.406494
  0
LINE
  8
LC-003-002-----0
 62
     1
  6
CONTINUOUS
 10
399.983643
 20
329.406494
 11
430.263306
 21
329.406494
  0
LINE
  8
LC-006-012-----0
 62
     2
  6
DASHED
 10
319.983643
 20
289.406494
 11
399.983643
 21
289.406494
  0
LINE
  8
LC-003-002-----0
 62
     1
  6
CONTINUOUS
 10
399.983643
 20
289.406494
 11
430.322357
 21
289.406494
  0
LINE
  8
LC-004-006-----0
 62
     2
  6
DASHDOT
 10
466.515137
 20
309.406494
 11
578.498413
 21
309.406494
  0
LINE
  8
LC-004-006-----0
 62
     2
  6
DASHDOT
 10
522.223389
 20
366.177795
 11
522.223389
 21
254.606995
  0
CIRCLE
  8
LC-003-002-----0
 62
     1
  6
CONTINUOUS
 10
522.223389
 20
309.406494
 40
20.000000
  0
CIRCLE
  8
LC-003-002-----0
 62
     1
  6
CONTINUOUS
 10
522.223389
 20
309.406494
 40
49.000000
  0
CIRCLE
  8
LC-006-012-----0
 62
     2
  6
DASHED
 10
522.223389
 20
309.406494
 40
31.000000
  0
CIRCLE
  8
LC-004-006-----0
 62
     2
  6
DASHDOT
 10
522.223389
 20
309.406494
 40
40.000000
  0
CIRCLE
  8
LC-003-002-----0
 62
     1
  6
CONTINUOUS
 10
522.223389
 20
349.406494
 40
7.500000
  0
CIRCLE
  8
LC-003-002-----0
 62
     1
  6
CONTINUOUS
 10
522.223389
 20
349.406494
 40
4.500000
  0
CIRCLE
  8
LC-003-002-----0
 62
     1
  6
CONTINUOUS
 10
482.223419
 20
309.406494
 40
7.500000
  0
CIRCLE
  8
LC-003-002-----0
 62
     1
  6
CONTINUOUS
 10
482.223419
 20
309.406494
 40
4.500000
  0
CIRCLE
  8
LC-003-002-----0
 62
     1
  6
CONTINUOUS
 10
522.223389
 20
269.406494
 40
7.500000
  0
CIRCLE
  8
LC-003-002-----0
 62
     1
  6
CONTINUOUS
 10
522.223389
 20
269.406494
 40
4.500000
  0
CIRCLE
  8
LC-003-002-----0
 62
     1
  6
CONTINUOUS
 10
562.223389
 20
309.406494
 40
4.500000
  0
CIRCLE
  8
LC-003-002-----0
 62
     1
  6
CONTINUOUS
 10
562.223389
 20
309.406494
 40
7.500000
  0
LINE
  8
LC-004-006-----0
 62
     2
  6
DASHDOT
 10
338.846710
 20
349.406494
 11
314.571716
 21
349.406494
  0
LINE
  8
LC-006-012-----0
 62
     2
  6
DASHED
 10
328.983643
 20
356.906494
 11
319.983643
 21
356.906494
  0
LINE
  8
LC-006-012-----0
 62
     2
  6
DASHED
 10
332.983643
 20
353.906494
 11
328.983643
 21
353.906494
  0
LINE
  8
LC-006-012-----0
 62
     2
  6
DASHED
 10
328.983643
 20
356.906494
 11
328.983643
 21
341.906494
  0
LINE
  8
LC-006-012-----0
 62
     2
  6
DASHED
 10
328.983643
 20
341.906494
 11
319.983643
 21
341.906494
  0
LINE
  8
LC-006-012-----0
 62
     2
  6
DASHED
 10
332.983643
 20
344.906494
 11
328.983643
 21
344.906494
  0
LINE
  8
LC-004-006-----0
 62
     2
  6
DASHDOT
 10
338.846710
 20
269.406494
 11
314.571716
 21
269.406494
  0
LINE
  8
LC-006-012-----0
 62
     2
  6
DASHED
 10
328.983643
 20
261.906494
 11
319.983643
 21
261.906494
  0
LINE
  8
LC-006-012-----0
 62
     2
  6
DASHED
 10
332.983643
 20
264.906494
 11
328.983643
 21
264.906494
  0
LINE
  8
LC-006-012-----0
 62
     2
  6
DASHED
 10
328.983643
 20
261.906494
 11
328.983643
 21
276.906494
  0
LINE
  8
LC-006-012-----0
 62
     2
  6
DASHED
 10
328.983643
 20
276.906494
 11
319.983643
 21
276.906494
  0
LINE
  8
LC-006-012-----0
 62
     2
  6
DASHED
 10
332.983643
 20
273.906494
 11
328.983643
 21
273.906494
  0
LINE
  8
LC-006-012-----0
 62
     2
  6
DASHED
 10
328.983643
 20
316.906494
 11
319.983643
 21
316.906494
  0
LINE
  8
LC-006-012-----0
 62
     2
  6
DASHED
 10
332.983643
 20
313.906494
 11
328.983643
 21
313.906494
  0
LINE
  8
LC-006-012-----0
 62
     2
  6
DASHED
 10
328.983643
 20
316.906494
 11
328.983643
 21
301.906494
  0
LINE
  8
LC-006-012-----0
 62
     2
  6
DASHED
 10
328.983643
 20
301.906494
 11
319.983643
 21
301.906494
  0
LINE
  8
LC-006-012-----0
 62
     2
  6
DASHED
 10
332.983643
 20
304.906494
 11
328.983643
 21
304.906494
  0
LINE
  8
LC-003-002-----0
 62
     1
  6
CONTINUOUS
 10
320.983643
 20
260.406494
 11
319.983643
 21
261.406494
  0
LINE
  8
LC-003-002-----0
 62
     1
  6
CONTINUOUS
 10
320.983643
 20
358.406494
 11
319.983643
 21
357.406494
  0
LINE
  8
LC-003-002-----0
 62
     1
  6
CONTINUOUS
 10
320.983643
 20
260.406494
 11
320.983643
 21
358.406494
  0
LINE
  8
LC-003-002-----0
 62
     1
  6
CONTINUOUS
 10
331.983643
 20
358.406494
 11
332.983643
 21
357.406494
  0
LINE
  8
LC-003-002-----0
 62
     1
  6
CONTINUOUS
 10
332.983643
 20
261.406494
 11
331.983643
 21
260.406494
  0
LINE
  8
LC-003-002-----0
 62
     1
  6
CONTINUOUS
 10
331.983643
 20
358.406494
 11
331.983643
 21
260.406494
  0
ARC
  8
LC-003-002-----0
 62
     1
  6
CONTINUOUS
 10
398.733643
 20
339.156494
 40
1.250000
 50
0.000000
 51
90.000003
  0
ARC
  8
LC-003-002-----0
 62
     1
  6
CONTINUOUS
 10
398.733643
 20
279.656494
 40
1.250000
 50
269.999997
 51
0.000000
  0
LINE
  8
LC-003-002-----0
 62
     1
  6
CONTINUOUS
 10
333.983643
 20
340.406494
 11
333.983643
 21
278.406494
  0
LINE
  8
LC-003-002-----0
 62
     1
  6
CONTINUOUS
 10
332.983643
 20
339.406494
 11
333.983643
 21
339.406494
  0
LINE
  8
LC-003-002-----0
 62
     1
  6
CONTINUOUS
 10
332.983643
 20
279.406494
 11
333.983643
 21
279.406494
  0
CIRCLE
  8
LC-003-002-----0
 62
     1
  6
CONTINUOUS
 10
522.223389
 20
309.406494
 40
48.000000
  0
ENDSEC
  0
EOF
