  0
SECTION
  2
HEADER
  9
$LIMMIN
 10
53.067345
 20
72.417732
  9
$LIMMAX
 10
248.246735
 20
137.520172
  9
$EXTMIN
 10
53.067345
 20
72.417732
  9
$EXTMAX
 10
248.246735
 20
137.520172
  0
ENDSEC
  0
SECTION
  2
TABLES
  0
TABLE
  2
LTYPE
 70
     3
  0
LTYPE
  2
CONTINUOUS
 70
    64
  3
Ausgezogene Linie
 72
    65
 73
     0
 40
0.0
  0
LTYPE
  2
DASHED
 70
    64
  3
__ __ __ __ __ __ __ __ __ __ __ __ __ __ __
 72
    65
 73
     2
 40
0.75
 49
0.5
 49
-0.25
  0
LTYPE
  2
DASHDOT
 70
    64
  3
__ . __ . __ . __ . __ . __ . __ . __ . __ . __
 72
    65
 73
     4
 40
1.0
 49
0.5
 49
-0.25
 49
0.0
 49
-0.25
  0
ENDTAB
  0
TABLE
  2
LAYER
 70
     4
  0
LAYER
  2
LC-003-002-----0
 70
    64
 62
     7
  6
CONTINUOUS
  0
LAYER
  2
LC-004-006-----0
 70
    64
 62
     7
  6
CONTINUOUS
  0
LAYER
  2
LC-006-012-----0
 70
    64
 62
     7
  6
CONTINUOUS
  0
LAYER
  2
LC-005-002-RND-0
 70
    64
 62
     7
  6
CONTINUOUS
  0
ENDTAB
  0
TABLE
  2
STYLE
 70
     1
  0
STYLE
  2
TXT8
 70
    64
 40
0.0
 41
1.0
 50
0.0
 71
     0
 42
3.500000
  3
TXT8
  4

  0
ENDTAB
  0
ENDSEC
  0
SECTION
  2
BLOCKS
  0
ENDSEC
  0
SECTION
  2
ENTITIES
  0
LINE
  8
LC-004-006-----0
 62
     2
  6
DASHDOT
 10
53.067345
 20
105.199364
 11
146.518570
 21
105.199364
  0
LINE
  8
LC-003-002-----0
 62
     1
  6
CONTINUOUS
 10
83.644989
 20
121.199364
 11
119.394989
 21
121.199364
  0
LINE
  8
LC-003-002-----0
 62
     1
  6
CONTINUOUS
 10
83.644989
 20
89.199364
 11
119.394989
 21
89.199364
  0
LINE
  8
LC-003-002-----0
 62
     1
  6
CONTINUOUS
 10
74.894989
 20
131.699371
 11
74.894989
 21
78.699356
  0
LINE
  8
LC-003-002-----0
 62
     1
  6
CONTINUOUS
 10
82.894989
 20
131.699371
 11
82.894989
 21
78.699356
  0
LINE
  8
LC-003-002-----0
 62
     1
  6
CONTINUOUS
 10
119.894989
 20
120.699364
 11
119.894989
 21
89.699364
  0
LINE
  8
LC-003-002-----0
 62
     1
  6
CONTINUOUS
 10
75.394989
 20
132.199371
 11
82.394989
 21
132.199371
  0
LINE
  8
LC-003-002-----0
 62
     1
  6
CONTINUOUS
 10
82.394989
 20
78.199364
 11
75.394989
 21
78.199364
  0
LINE
  8
LC-003-002-----0
 62
     1
  6
CONTINUOUS
 10
56.894516
 20
115.199364
 11
74.894989
 21
115.199364
  0
LINE
  8
LC-003-002-----0
 62
     1
  6
CONTINUOUS
 10
56.176186
 20
95.199364
 11
74.894989
 21
95.199364
  0
LINE
  8
LC-005-002-RND-0
 62
     2
  6
CONTINUOUS
 10
56.176186
 20
95.199364
 11
55.486752
 21
99.071091
  0
LINE
  8
LC-005-002-RND-0
 62
     2
  6
CONTINUOUS
 10
55.486752
 20
99.071091
 11
57.906658
 21
108.807838
  0
LINE
  8
LC-005-002-RND-0
 62
     2
  6
CONTINUOUS
 10
57.906658
 20
108.807838
 11
56.894516
 21
115.199364
  0
LINE
  8
LC-005-002-RND-0
 62
     2
  6
CONTINUOUS
 10
141.857956
 20
95.199364
 11
141.422989
 21
99.826424
  0
LINE
  8
LC-005-002-RND-0
 62
     2
  6
CONTINUOUS
 10
141.422989
 20
99.826424
 11
142.308334
 21
109.279922
  0
LINE
  8
LC-005-002-RND-0
 62
     2
  6
CONTINUOUS
 10
142.308334
 20
109.279922
 11
141.505249
 21
115.199364
  0
LINE
  8
LC-006-012-----0
 62
     2
  6
DASHED
 10
74.894989
 20
115.199364
 11
119.894989
 21
115.199364
  0
LINE
  8
LC-003-002-----0
 62
     1
  6
CONTINUOUS
 10
119.894989
 20
115.199364
 11
141.505249
 21
115.199364
  0
LINE
  8
LC-006-012-----0
 62
     2
  6
DASHED
 10
74.894989
 20
95.199364
 11
119.894989
 21
95.199364
  0
LINE
  8
LC-003-002-----0
 62
     1
  6
CONTINUOUS
 10
119.894989
 20
95.199364
 11
141.857956
 21
95.199364
  0
LINE
  8
LC-004-006-----0
 62
     2
  6
DASHDOT
 10
177.640701
 20
105.199364
 11
248.246735
 21
105.199364
  0
LINE
  8
LC-004-006-----0
 62
     2
  6
DASHDOT
 10
213.365356
 20
137.520172
 11
213.365356
 21
72.417732
  0
CIRCLE
  8
LC-003-002-----0
 62
     1
  6
CONTINUOUS
 10
213.365356
 20
105.199364
 40
10.000000
  0
CIRCLE
  8
LC-006-012-----0
 62
     2
  6
DASHED
 10
213.365356
 20
105.199364
 40
16.000000
  0
CIRCLE
  8
LC-003-002-----0
 62
     1
  6
CONTINUOUS
 10
213.365356
 20
105.199364
 40
27.000000
  0
CIRCLE
  8
LC-004-006-----0
 62
     2
  6
DASHDOT
 10
213.365356
 20
105.199364
 40
21.500000
  0
CIRCLE
  8
LC-003-002-----0
 62
     1
  6
CONTINUOUS
 10
213.365356
 20
126.699364
 40
5.000000
  0
CIRCLE
  8
LC-003-002-----0
 62
     1
  6
CONTINUOUS
 10
213.365356
 20
126.699364
 40
2.900000
  0
CIRCLE
  8
LC-003-002-----0
 62
     1
  6
CONTINUOUS
 10
191.865356
 20
105.199364
 40
5.000000
  0
CIRCLE
  8
LC-003-002-----0
 62
     1
  6
CONTINUOUS
 10
191.865356
 20
105.199364
 40
2.900000
  0
CIRCLE
  8
LC-003-002-----0
 62
     1
  6
CONTINUOUS
 10
213.365356
 20
83.699364
 40
5.000000
  0
CIRCLE
  8
LC-003-002-----0
 62
     1
  6
CONTINUOUS
 10
213.365356
 20
83.699364
 40
2.900000
  0
CIRCLE
  8
LC-003-002-----0
 62
     1
  6
CONTINUOUS
 10
234.865356
 20
105.199364
 40
2.900000
  0
CIRCLE
  8
LC-003-002-----0
 62
     1
  6
CONTINUOUS
 10
234.865356
 20
105.199364
 40
5.000000
  0
LINE
  8
LC-004-006-----0
 62
     2
  6
DASHDOT
 10
86.586235
 20
126.699364
 11
71.364082
 21
126.699364
  0
LINE
  8
LC-006-012-----0
 62
     2
  6
DASHED
 10
80.594994
 20
131.699371
 11
74.894989
 21
131.699371
  0
LINE
  8
LC-006-012-----0
 62
     2
  6
DASHED
 10
82.894989
 20
129.599365
 11
80.594994
 21
129.599365
  0
LINE
  8
LC-006-012-----0
 62
     2
  6
DASHED
 10
80.594994
 20
131.699371
 11
80.594994
 21
121.699356
  0
LINE
  8
LC-006-012-----0
 62
     2
  6
DASHED
 10
80.594994
 20
121.699364
 11
74.894989
 21
121.699364
  0
LINE
  8
LC-006-012-----0
 62
     2
  6
DASHED
 10
82.894989
 20
123.799362
 11
80.594994
 21
123.799362
  0
LINE
  8
LC-004-006-----0
 62
     2
  6
DASHDOT
 10
86.586235
 20
83.699364
 11
71.364082
 21
83.699364
  0
LINE
  8
LC-006-012-----0
 62
     2
  6
DASHED
 10
80.594994
 20
78.699364
 11
74.894989
 21
78.699364
  0
LINE
  8
LC-006-012-----0
 62
     2
  6
DASHED
 10
82.894989
 20
80.799362
 11
80.594994
 21
80.799362
  0
LINE
  8
LC-006-012-----0
 62
     2
  6
DASHED
 10
80.594994
 20
78.699364
 11
80.594994
 21
88.699364
  0
LINE
  8
LC-006-012-----0
 62
     2
  6
DASHED
 10
80.594994
 20
88.699364
 11
74.894989
 21
88.699364
  0
LINE
  8
LC-006-012-----0
 62
     2
  6
DASHED
 10
82.894989
 20
86.599365
 11
80.594994
 21
86.599365
  0
LINE
  8
LC-006-012-----0
 62
     2
  6
DASHED
 10
80.594994
 20
110.199364
 11
74.894989
 21
110.199364
  0
LINE
  8
LC-006-012-----0
 62
     2
  6
DASHED
 10
82.894989
 20
108.099365
 11
80.594994
 21
108.099365
  0
LINE
  8
LC-006-012-----0
 62
     2
  6
DASHED
 10
80.594994
 20
110.199364
 11
80.594994
 21
100.199364
  0
LINE
  8
LC-006-012-----0
 62
     2
  6
DASHED
 10
80.594994
 20
100.199364
 11
74.894989
 21
100.199364
  0
LINE
  8
LC-006-012-----0
 62
     2
  6
DASHED
 10
82.894989
 20
102.299362
 11
80.594994
 21
102.299362
  0
LINE
  8
LC-003-002-----0
 62
     1
  6
CONTINUOUS
 10
75.394989
 20
78.199364
 11
74.894989
 21
78.699364
  0
LINE
  8
LC-003-002-----0
 62
     1
  6
CONTINUOUS
 10
75.394989
 20
132.199371
 11
74.894989
 21
131.699371
  0
LINE
  8
LC-003-002-----0
 62
     1
  6
CONTINUOUS
 10
75.394989
 20
78.199364
 11
75.394989
 21
132.199371
  0
LINE
  8
LC-003-002-----0
 62
     1
  6
CONTINUOUS
 10
82.394989
 20
132.199371
 11
82.894989
 21
131.699371
  0
LINE
  8
LC-003-002-----0
 62
     1
  6
CONTINUOUS
 10
82.894989
 20
78.699364
 11
82.394989
 21
78.199364
  0
LINE
  8
LC-003-002-----0
 62
     1
  6
CONTINUOUS
 10
82.394989
 20
132.199371
 11
82.394989
 21
78.199356
  0
ARC
  8
LC-003-002-----0
 62
     1
  6
CONTINUOUS
 10
119.394989
 20
120.699364
 40
0.500000
 50
0.000000
 51
90.000003
  0
ARC
  8
LC-003-002-----0
 62
     1
  6
CONTINUOUS
 10
119.394989
 20
89.699364
 40
0.500000
 50
269.999997
 51
0.000000
  0
LINE
  8
LC-003-002-----0
 62
     1
  6
CONTINUOUS
 10
83.644989
 20
121.199364
 11
83.644989
 21
89.199364
  0
LINE
  8
LC-003-002-----0
 62
     1
  6
CONTINUOUS
 10
82.894989
 20
89.949364
 11
83.644989
 21
89.949364
  0
LINE
  8
LC-003-002-----0
 62
     1
  6
CONTINUOUS
 10
82.894989
 20
120.449364
 11
83.644989
 21
120.449364
  0
CIRCLE
  8
LC-003-002-----0
 62
     1
  6
CONTINUOUS
 10
213.365356
 20
105.199364
 40
26.500000
  0
ENDSEC
  0
EOF
