  0
SECTION
  2
HEADER
  9
$LIMMIN
 10
60.655121
 20
257.611053
  9
$LIMMAX
 10
122.987144
 20
276.611053
  9
$EXTMIN
 10
60.655121
 20
257.611053
  9
$EXTMAX
 10
122.987144
 20
276.611053
  0
ENDSEC
  0
SECTION
  2
TABLES
  0
TABLE
  2
LTYPE
 70
     3
  0
LTYPE
  2
CONTINUOUS
 70
    64
  3
Ausgezogene Linie
 72
    65
 73
     0
 40
0.0
  0
LTYPE
  2
DASHED
 70
    64
  3
__ __ __ __ __ __ __ __ __ __ __ __ __ __ __
 72
    65
 73
     2
 40
0.75
 49
0.5
 49
-0.25
  0
LTYPE
  2
DASHDOT
 70
    64
  3
__ . __ . __ . __ . __ . __ . __ . __ . __ . __
 72
    65
 73
     4
 40
1.0
 49
0.5
 49
-0.25
 49
0.0
 49
-0.25
  0
ENDTAB
  0
TABLE
  2
LAYER
 70
     4
  0
LAYER
  2
LC-003-002-----0
 70
    64
 62
     7
  6
CONTINUOUS
  0
LAYER
  2
LC-005-002-RND-0
 70
    64
 62
     7
  6
CONTINUOUS
  0
LAYER
  2
LC-004-006-----0
 70
    64
 62
     7
  6
CONTINUOUS
  0
LAYER
  2
LC-006-012-----0
 70
    64
 62
     7
  6
CONTINUOUS
  0
ENDTAB
  0
TABLE
  2
STYLE
 70
     1
  0
STYLE
  2
TXT8
 70
    64
 40
0.0
 41
1.0
 50
0.0
 71
     0
 42
3.500000
  3
TXT8
  4

  0
ENDTAB
  0
ENDSEC
  0
SECTION
  2
BLOCKS
  0
ENDSEC
  0
SECTION
  2
ENTITIES
  0
LINE
  8
LC-005-002-RND-0
 62
     2
  6
DASHDOT
 10
60.655121
 20
267.111053
 11
122.987144
 21
267.111053
  0
LINE
  8
LC-003-002-----0
 62
     1
  6
CONTINUOUS
 10
75.929436
 20
276.611053
 11
105.929436
 21
276.611053
  0
LINE
  8
LC-003-002-----0
 62
     1
  6
CONTINUOUS
 10
75.929436
 20
257.611053
 11
105.929436
 21
257.611053
  0
LINE
  8
LC-003-002-----0
 62
     1
  6
CONTINUOUS
 10
75.429436
 20
276.111053
 11
75.429436
 21
258.111053
  0
LINE
  8
LC-003-002-----0
 62
     1
  6
CONTINUOUS
 10
106.429436
 20
276.111053
 11
106.429436
 21
258.111053
  0
ARC
  8
LC-003-002-----0
 62
     1
  6
CONTINUOUS
 10
75.929436
 20
276.111053
 40
0.500000
 50
90.000003
 51
180.000009
  0
ARC
  8
LC-003-002-----0
 62
     1
  6
CONTINUOUS
 10
75.929436
 20
258.111053
 40
0.500000
 50
180.000009
 51
269.999997
  0
ARC
  8
LC-003-002-----0
 62
     1
  6
CONTINUOUS
 10
105.929436
 20
258.111053
 40
0.500000
 50
269.999997
 51
0.000000
  0
ARC
  8
LC-003-002-----0
 62
     1
  6
CONTINUOUS
 10
105.929436
 20
276.111053
 40
0.500000
 50
0.000000
 51
90.000003
  0
LINE
  8
LC-003-002-----0
 62
     1
  6
CONTINUOUS
 10
63.102375
 20
273.111053
 11
75.429436
 21
273.111053
  0
LINE
  8
LC-003-002-----0
 62
     1
  6
CONTINUOUS
 10
63.137699
 20
261.111053
 11
75.429436
 21
261.111053
  0
LINE
  8
LC-006-012-----0
 62
     2
  6
CONTINUOUS
 10
63.137699
 20
261.111053
 11
63.393642
 21
263.682556
  0
LINE
  8
LC-006-012-----0
 62
     2
  6
CONTINUOUS
 10
63.393642
 20
263.682556
 11
62.671295
 21
269.287994
  0
LINE
  8
LC-006-012-----0
 62
     2
  6
CONTINUOUS
 10
62.671295
 20
269.287994
 11
63.102375
 21
273.111053
  0
LINE
  8
LC-006-012-----0
 62
     2
  6
CONTINUOUS
 10
120.419052
 20
261.111053
 11
120.736763
 21
264.351990
  0
LINE
  8
LC-006-012-----0
 62
     2
  6
CONTINUOUS
 10
120.736763
 20
264.351990
 11
120.014412
 21
269.421326
  0
LINE
  8
LC-006-012-----0
 62
     2
  6
CONTINUOUS
 10
120.014412
 20
269.421326
 11
120.260948
 21
273.111053
  0
LINE
  8
LC-004-006-----0
 62
     2
  6
DASHED
 10
75.429436
 20
273.111053
 11
106.429436
 21
273.111053
  0
LINE
  8
LC-003-002-----0
 62
     1
  6
CONTINUOUS
 10
106.429436
 20
273.111053
 11
120.260948
 21
273.111053
  0
LINE
  8
LC-004-006-----0
 62
     2
  6
DASHED
 10
75.429436
 20
261.111053
 11
106.429436
 21
261.111053
  0
LINE
  8
LC-003-002-----0
 62
     1
  6
CONTINUOUS
 10
106.429436
 20
261.111053
 11
120.419052
 21
261.111053
  0
ENDSEC
  0
EOF
