  0
SECTION
  2
HEADER
  9
$LIMMIN
 10
64.077217
 20
339.949219
  9
$LIMMAX
 10
110.242973
 20
353.949219
  9
$EXTMIN
 10
64.077217
 20
339.949219
  9
$EXTMAX
 10
110.242973
 20
353.949219
  0
ENDSEC
  0
SECTION
  2
TABLES
  0
TABLE
  2
LTYPE
 70
     3
  0
LTYPE
  2
CONTINUOUS
 70
    64
  3
Ausgezogene Linie
 72
    65
 73
     0
 40
0.0
  0
LTYPE
  2
DASHED
 70
    64
  3
__ __ __ __ __ __ __ __ __ __ __ __ __ __ __
 72
    65
 73
     2
 40
0.75
 49
0.5
 49
-0.25
  0
LTYPE
  2
DASHDOT
 70
    64
  3
__ . __ . __ . __ . __ . __ . __ . __ . __ . __
 72
    65
 73
     4
 40
1.0
 49
0.5
 49
-0.25
 49
0.0
 49
-0.25
  0
ENDTAB
  0
TABLE
  2
LAYER
 70
     4
  0
LAYER
  2
LC-003-002-----0
 70
    64
 62
     7
  6
CONTINUOUS
  0
LAYER
  2
LC-005-002-RND-0
 70
    64
 62
     7
  6
CONTINUOUS
  0
LAYER
  2
LC-004-006-----0
 70
    64
 62
     7
  6
CONTINUOUS
  0
LAYER
  2
LC-006-012-----0
 70
    64
 62
     7
  6
CONTINUOUS
  0
ENDTAB
  0
TABLE
  2
STYLE
 70
     1
  0
STYLE
  2
TXT8
 70
    64
 40
0.0
 41
1.0
 50
0.0
 71
     0
 42
3.500000
  3
TXT8
  4

  0
ENDTAB
  0
ENDSEC
  0
SECTION
  2
BLOCKS
  0
ENDSEC
  0
SECTION
  2
ENTITIES
  0
LINE
  8
LC-005-002-RND-0
 62
     2
  6
DASHDOT
 10
64.077217
 20
346.949219
 11
110.242973
 21
346.949219
  0
LINE
  8
LC-003-002-----0
 62
     1
  6
CONTINUOUS
 10
75.929436
 20
353.949219
 11
97.929436
 21
353.949219
  0
LINE
  8
LC-003-002-----0
 62
     1
  6
CONTINUOUS
 10
75.929436
 20
339.949219
 11
97.929436
 21
339.949219
  0
LINE
  8
LC-003-002-----0
 62
     1
  6
CONTINUOUS
 10
75.429436
 20
353.449219
 11
75.429436
 21
340.449219
  0
LINE
  8
LC-003-002-----0
 62
     1
  6
CONTINUOUS
 10
98.429436
 20
353.449219
 11
98.429436
 21
340.449219
  0
ARC
  8
LC-003-002-----0
 62
     1
  6
CONTINUOUS
 10
75.929436
 20
353.449219
 40
0.500000
 50
90.000003
 51
180.000009
  0
ARC
  8
LC-003-002-----0
 62
     1
  6
CONTINUOUS
 10
75.929436
 20
340.449219
 40
0.500000
 50
180.000009
 51
269.999997
  0
ARC
  8
LC-003-002-----0
 62
     1
  6
CONTINUOUS
 10
97.929436
 20
340.449219
 40
0.500000
 50
269.999997
 51
0.000000
  0
ARC
  8
LC-003-002-----0
 62
     1
  6
CONTINUOUS
 10
97.929436
 20
353.449219
 40
0.500000
 50
0.000000
 51
90.000003
  0
LINE
  8
LC-003-002-----0
 62
     1
  6
CONTINUOUS
 10
65.668701
 20
350.949219
 11
75.429436
 21
350.949219
  0
LINE
  8
LC-003-002-----0
 62
     1
  6
CONTINUOUS
 10
66.087067
 20
342.949219
 11
75.429436
 21
342.949219
  0
LINE
  8
LC-006-012-----0
 62
     2
  6
CONTINUOUS
 10
66.087067
 20
342.949219
 11
66.218414
 21
344.211487
  0
LINE
  8
LC-006-012-----0
 62
     2
  6
CONTINUOUS
 10
66.218414
 20
344.211487
 11
65.633087
 21
348.633087
  0
LINE
  8
LC-006-012-----0
 62
     2
  6
CONTINUOUS
 10
65.633087
 20
348.633087
 11
65.668701
 21
350.949219
  0
LINE
  8
LC-006-012-----0
 62
     2
  6
CONTINUOUS
 10
108.387192
 20
342.949219
 11
108.431961
 21
344.355530
  0
LINE
  8
LC-006-012-----0
 62
     2
  6
CONTINUOUS
 10
108.431961
 20
344.355530
 11
107.586494
 21
348.921204
  0
LINE
  8
LC-006-012-----0
 62
     2
  6
CONTINUOUS
 10
107.586494
 20
348.921204
 11
107.642502
 21
350.949219
  0
LINE
  8
LC-004-006-----0
 62
     2
  6
DASHED
 10
75.429436
 20
350.949219
 11
98.429436
 21
350.949219
  0
LINE
  8
LC-003-002-----0
 62
     1
  6
CONTINUOUS
 10
98.429436
 20
350.949219
 11
107.642502
 21
350.949219
  0
LINE
  8
LC-004-006-----0
 62
     2
  6
DASHED
 10
75.429436
 20
342.949219
 11
98.429436
 21
342.949219
  0
LINE
  8
LC-003-002-----0
 62
     1
  6
CONTINUOUS
 10
98.429436
 20
342.949219
 11
108.387192
 21
342.949219
  0
ENDSEC
  0
EOF
