ISO-10303-21;
HEADER;
/* Generated by software containing ST-Developer
 * from STEP Tools, Inc. (www.steptools.com) 
 */

FILE_DESCRIPTION(
/* description */ (''),
/* implementation_level */ '2;1');

FILE_NAME(
/* name */ 'PPF008.step',
/* time_stamp */ '2023-12-05T16:34:49Z',
/* author */ (''),
/* organization */ (''),
/* preprocessor_version */ 'ST-DEVELOPER v20',
/* originating_system */ 'Autodesk Translation Framework v12.9.0.99',
/* authorisation */ '');

FILE_SCHEMA (('AUTOMOTIVE_DESIGN { 1 0 10303 214 3 1 1 }'));
ENDSEC;

DATA;
#10=MECHANICAL_DESIGN_GEOMETRIC_PRESENTATION_REPRESENTATION('',(#13),#284);
#11=SHAPE_REPRESENTATION_RELATIONSHIP('SRR','None',#291,#12);
#12=ADVANCED_BREP_SHAPE_REPRESENTATION('',(#14),#283);
#13=STYLED_ITEM('',(#300),#14);
#14=MANIFOLD_SOLID_BREP('Body1',#168);
#15=CIRCLE('',#189,1.50000000000001);
#16=CIRCLE('',#190,1.50000000000001);
#17=CYLINDRICAL_SURFACE('',#188,1.50000000000001);
#18=FACE_OUTER_BOUND('',#27,.T.);
#19=FACE_OUTER_BOUND('',#28,.T.);
#20=FACE_OUTER_BOUND('',#29,.T.);
#21=FACE_OUTER_BOUND('',#30,.T.);
#22=FACE_OUTER_BOUND('',#31,.T.);
#23=FACE_OUTER_BOUND('',#32,.T.);
#24=FACE_OUTER_BOUND('',#33,.T.);
#25=FACE_OUTER_BOUND('',#34,.T.);
#26=FACE_OUTER_BOUND('',#35,.T.);
#27=EDGE_LOOP('',(#109,#110,#111,#112));
#28=EDGE_LOOP('',(#113,#114,#115,#116));
#29=EDGE_LOOP('',(#117,#118,#119,#120));
#30=EDGE_LOOP('',(#121,#122,#123,#124));
#31=EDGE_LOOP('',(#125,#126,#127,#128));
#32=EDGE_LOOP('',(#129,#130,#131,#132));
#33=EDGE_LOOP('',(#133,#134,#135,#136));
#34=EDGE_LOOP('',(#137,#138,#139,#140,#141,#142,#143));
#35=EDGE_LOOP('',(#144,#145,#146,#147,#148,#149,#150));
#36=LINE('',#240,#55);
#37=LINE('',#242,#56);
#38=LINE('',#244,#57);
#39=LINE('',#245,#58);
#40=LINE('',#248,#59);
#41=LINE('',#250,#60);
#42=LINE('',#251,#61);
#43=LINE('',#254,#62);
#44=LINE('',#256,#63);
#45=LINE('',#257,#64);
#46=LINE('',#260,#65);
#47=LINE('',#262,#66);
#48=LINE('',#263,#67);
#49=LINE('',#266,#68);
#50=LINE('',#268,#69);
#51=LINE('',#269,#70);
#52=LINE('',#272,#71);
#53=LINE('',#274,#72);
#54=LINE('',#275,#73);
#55=VECTOR('',#197,10.);
#56=VECTOR('',#198,10.);
#57=VECTOR('',#199,10.);
#58=VECTOR('',#200,10.);
#59=VECTOR('',#203,10.);
#60=VECTOR('',#204,10.);
#61=VECTOR('',#205,10.);
#62=VECTOR('',#208,10.);
#63=VECTOR('',#209,10.);
#64=VECTOR('',#210,10.);
#65=VECTOR('',#213,10.);
#66=VECTOR('',#214,10.);
#67=VECTOR('',#215,10.);
#68=VECTOR('',#218,10.);
#69=VECTOR('',#219,10.);
#70=VECTOR('',#220,10.);
#71=VECTOR('',#223,10.);
#72=VECTOR('',#224,10.);
#73=VECTOR('',#225,10.);
#74=VERTEX_POINT('',#238);
#75=VERTEX_POINT('',#239);
#76=VERTEX_POINT('',#241);
#77=VERTEX_POINT('',#243);
#78=VERTEX_POINT('',#247);
#79=VERTEX_POINT('',#249);
#80=VERTEX_POINT('',#253);
#81=VERTEX_POINT('',#255);
#82=VERTEX_POINT('',#259);
#83=VERTEX_POINT('',#261);
#84=VERTEX_POINT('',#265);
#85=VERTEX_POINT('',#267);
#86=VERTEX_POINT('',#271);
#87=VERTEX_POINT('',#273);
#88=EDGE_CURVE('',#74,#75,#36,.T.);
#89=EDGE_CURVE('',#74,#76,#37,.T.);
#90=EDGE_CURVE('',#77,#76,#38,.T.);
#91=EDGE_CURVE('',#75,#77,#39,.T.);
#92=EDGE_CURVE('',#78,#75,#40,.T.);
#93=EDGE_CURVE('',#79,#77,#41,.T.);
#94=EDGE_CURVE('',#78,#79,#42,.T.);
#95=EDGE_CURVE('',#80,#78,#43,.T.);
#96=EDGE_CURVE('',#81,#79,#44,.T.);
#97=EDGE_CURVE('',#80,#81,#45,.T.);
#98=EDGE_CURVE('',#82,#80,#46,.T.);
#99=EDGE_CURVE('',#83,#81,#47,.T.);
#100=EDGE_CURVE('',#82,#83,#48,.T.);
#101=EDGE_CURVE('',#82,#84,#49,.T.);
#102=EDGE_CURVE('',#85,#83,#50,.T.);
#103=EDGE_CURVE('',#84,#85,#51,.T.);
#104=EDGE_CURVE('',#86,#84,#52,.T.);
#105=EDGE_CURVE('',#87,#85,#53,.T.);
#106=EDGE_CURVE('',#86,#87,#54,.T.);
#107=EDGE_CURVE('',#86,#74,#15,.T.);
#108=EDGE_CURVE('',#76,#87,#16,.T.);
#109=ORIENTED_EDGE('',*,*,#88,.F.);
#110=ORIENTED_EDGE('',*,*,#89,.T.);
#111=ORIENTED_EDGE('',*,*,#90,.F.);
#112=ORIENTED_EDGE('',*,*,#91,.F.);
#113=ORIENTED_EDGE('',*,*,#92,.T.);
#114=ORIENTED_EDGE('',*,*,#91,.T.);
#115=ORIENTED_EDGE('',*,*,#93,.F.);
#116=ORIENTED_EDGE('',*,*,#94,.F.);
#117=ORIENTED_EDGE('',*,*,#95,.T.);
#118=ORIENTED_EDGE('',*,*,#94,.T.);
#119=ORIENTED_EDGE('',*,*,#96,.F.);
#120=ORIENTED_EDGE('',*,*,#97,.F.);
#121=ORIENTED_EDGE('',*,*,#98,.T.);
#122=ORIENTED_EDGE('',*,*,#97,.T.);
#123=ORIENTED_EDGE('',*,*,#99,.F.);
#124=ORIENTED_EDGE('',*,*,#100,.F.);
#125=ORIENTED_EDGE('',*,*,#101,.F.);
#126=ORIENTED_EDGE('',*,*,#100,.T.);
#127=ORIENTED_EDGE('',*,*,#102,.F.);
#128=ORIENTED_EDGE('',*,*,#103,.F.);
#129=ORIENTED_EDGE('',*,*,#104,.T.);
#130=ORIENTED_EDGE('',*,*,#103,.T.);
#131=ORIENTED_EDGE('',*,*,#105,.F.);
#132=ORIENTED_EDGE('',*,*,#106,.F.);
#133=ORIENTED_EDGE('',*,*,#107,.F.);
#134=ORIENTED_EDGE('',*,*,#106,.T.);
#135=ORIENTED_EDGE('',*,*,#108,.F.);
#136=ORIENTED_EDGE('',*,*,#89,.F.);
#137=ORIENTED_EDGE('',*,*,#108,.T.);
#138=ORIENTED_EDGE('',*,*,#105,.T.);
#139=ORIENTED_EDGE('',*,*,#102,.T.);
#140=ORIENTED_EDGE('',*,*,#99,.T.);
#141=ORIENTED_EDGE('',*,*,#96,.T.);
#142=ORIENTED_EDGE('',*,*,#93,.T.);
#143=ORIENTED_EDGE('',*,*,#90,.T.);
#144=ORIENTED_EDGE('',*,*,#107,.T.);
#145=ORIENTED_EDGE('',*,*,#88,.T.);
#146=ORIENTED_EDGE('',*,*,#92,.F.);
#147=ORIENTED_EDGE('',*,*,#95,.F.);
#148=ORIENTED_EDGE('',*,*,#98,.F.);
#149=ORIENTED_EDGE('',*,*,#101,.T.);
#150=ORIENTED_EDGE('',*,*,#104,.F.);
#151=PLANE('',#182);
#152=PLANE('',#183);
#153=PLANE('',#184);
#154=PLANE('',#185);
#155=PLANE('',#186);
#156=PLANE('',#187);
#157=PLANE('',#191);
#158=PLANE('',#192);
#159=ADVANCED_FACE('',(#18),#151,.T.);
#160=ADVANCED_FACE('',(#19),#152,.T.);
#161=ADVANCED_FACE('',(#20),#153,.T.);
#162=ADVANCED_FACE('',(#21),#154,.T.);
#163=ADVANCED_FACE('',(#22),#155,.T.);
#164=ADVANCED_FACE('',(#23),#156,.T.);
#165=ADVANCED_FACE('',(#24),#17,.F.);
#166=ADVANCED_FACE('',(#25),#157,.T.);
#167=ADVANCED_FACE('',(#26),#158,.F.);
#168=CLOSED_SHELL('',(#159,#160,#161,#162,#163,#164,#165,#166,#167));
#169=DERIVED_UNIT_ELEMENT(#171,1.);
#170=DERIVED_UNIT_ELEMENT(#286,-3.);
#171=(
MASS_UNIT()
NAMED_UNIT(*)
SI_UNIT(.KILO.,.GRAM.)
);
#172=DERIVED_UNIT((#169,#170));
#173=MEASURE_REPRESENTATION_ITEM('density measure',
POSITIVE_RATIO_MEASURE(7850.),#172);
#174=PROPERTY_DEFINITION_REPRESENTATION(#179,#176);
#175=PROPERTY_DEFINITION_REPRESENTATION(#180,#177);
#176=REPRESENTATION('material name',(#178),#283);
#177=REPRESENTATION('density',(#173),#283);
#178=DESCRIPTIVE_REPRESENTATION_ITEM('Steel','Steel');
#179=PROPERTY_DEFINITION('material property','material name',#293);
#180=PROPERTY_DEFINITION('material property','density of part',#293);
#181=AXIS2_PLACEMENT_3D('',#236,#193,#194);
#182=AXIS2_PLACEMENT_3D('',#237,#195,#196);
#183=AXIS2_PLACEMENT_3D('',#246,#201,#202);
#184=AXIS2_PLACEMENT_3D('',#252,#206,#207);
#185=AXIS2_PLACEMENT_3D('',#258,#211,#212);
#186=AXIS2_PLACEMENT_3D('',#264,#216,#217);
#187=AXIS2_PLACEMENT_3D('',#270,#221,#222);
#188=AXIS2_PLACEMENT_3D('',#276,#226,#227);
#189=AXIS2_PLACEMENT_3D('',#277,#228,#229);
#190=AXIS2_PLACEMENT_3D('',#278,#230,#231);
#191=AXIS2_PLACEMENT_3D('',#279,#232,#233);
#192=AXIS2_PLACEMENT_3D('',#280,#234,#235);
#193=DIRECTION('axis',(0.,0.,1.));
#194=DIRECTION('refdir',(1.,0.,0.));
#195=DIRECTION('center_axis',(0.,2.22044604925031E-16,1.));
#196=DIRECTION('ref_axis',(-1.,0.,0.));
#197=DIRECTION('',(1.,0.,0.));
#198=DIRECTION('',(0.,-1.,2.22044604925031E-16));
#199=DIRECTION('',(-1.,0.,0.));
#200=DIRECTION('',(0.,-1.,2.22044604925031E-16));
#201=DIRECTION('center_axis',(1.,0.,0.));
#202=DIRECTION('ref_axis',(0.,2.22044604925031E-16,1.));
#203=DIRECTION('',(0.,2.22044604925031E-16,1.));
#204=DIRECTION('',(0.,2.22044604925031E-16,1.));
#205=DIRECTION('',(0.,-1.,2.22044604925031E-16));
#206=DIRECTION('center_axis',(0.,-2.22044604925031E-16,-1.));
#207=DIRECTION('ref_axis',(1.,0.,0.));
#208=DIRECTION('',(1.,0.,0.));
#209=DIRECTION('',(1.,0.,0.));
#210=DIRECTION('',(0.,-1.,2.22044604925031E-16));
#211=DIRECTION('center_axis',(-1.,0.,0.));
#212=DIRECTION('ref_axis',(0.,-2.22044604925031E-16,-1.));
#213=DIRECTION('',(0.,-2.22044604925031E-16,-1.));
#214=DIRECTION('',(0.,-2.22044604925031E-16,-1.));
#215=DIRECTION('',(0.,-1.,2.22044604925031E-16));
#216=DIRECTION('center_axis',(0.,2.22044604925031E-16,1.));
#217=DIRECTION('ref_axis',(-1.,0.,0.));
#218=DIRECTION('',(1.,0.,0.));
#219=DIRECTION('',(-1.,0.,0.));
#220=DIRECTION('',(0.,-1.,2.22044604925031E-16));
#221=DIRECTION('center_axis',(0.939692620785907,7.59437276011517E-17,0.342020143325673));
#222=DIRECTION('ref_axis',(-0.342020143325673,2.08653676733374E-16,0.939692620785907));
#223=DIRECTION('',(-0.342020143325673,2.08653676733374E-16,0.939692620785907));
#224=DIRECTION('',(-0.342020143325673,2.08653676733374E-16,0.939692620785907));
#225=DIRECTION('',(0.,-1.,2.22044604925031E-16));
#226=DIRECTION('center_axis',(0.,-1.,2.22044604925031E-16));
#227=DIRECTION('ref_axis',(-0.939692620785911,-7.59437276011494E-17,-0.342020143325663));
#228=DIRECTION('center_axis',(0.,-1.,2.22044604925031E-16));
#229=DIRECTION('ref_axis',(-0.939692620785911,-7.59437276011494E-17,-0.342020143325663));
#230=DIRECTION('center_axis',(0.,1.,-2.22044604925031E-16));
#231=DIRECTION('ref_axis',(-0.939692620785911,-7.59437276011494E-17,-0.342020143325663));
#232=DIRECTION('center_axis',(0.,-1.,2.22044604925031E-16));
#233=DIRECTION('ref_axis',(1.,0.,0.));
#234=DIRECTION('center_axis',(0.,-1.,2.22044604925031E-16));
#235=DIRECTION('ref_axis',(1.,0.,0.));
#236=CARTESIAN_POINT('',(0.,0.,0.));
#237=CARTESIAN_POINT('Origin',(38.,1000.,137.));
#238=CARTESIAN_POINT('',(17.0503113073146,1000.,137.));
#239=CARTESIAN_POINT('',(38.,1000.,137.));
#240=CARTESIAN_POINT('',(17.0503113073146,1000.,137.));
#241=CARTESIAN_POINT('',(17.0503113073146,-2.22044604925031E-13,137.));
#242=CARTESIAN_POINT('',(17.0503113073146,1000.,137.));
#243=CARTESIAN_POINT('',(38.,-2.22044604925031E-13,137.));
#244=CARTESIAN_POINT('',(17.0503113073146,-2.22044604925031E-13,137.));
#245=CARTESIAN_POINT('',(38.,1000.,137.));
#246=CARTESIAN_POINT('Origin',(38.,1000.,-2.8421709430404E-13));
#247=CARTESIAN_POINT('',(38.,1000.,-2.8421709430404E-13));
#248=CARTESIAN_POINT('',(38.,1000.,-2.8421709430404E-13));
#249=CARTESIAN_POINT('',(38.,-2.22044604925031E-13,0.));
#250=CARTESIAN_POINT('',(38.,-2.22044604925031E-13,0.));
#251=CARTESIAN_POINT('',(38.,1000.,-2.8421709430404E-13));
#252=CARTESIAN_POINT('Origin',(0.,1000.,-2.8421709430404E-13));
#253=CARTESIAN_POINT('',(0.,1000.,-2.8421709430404E-13));
#254=CARTESIAN_POINT('',(0.,1000.,-2.8421709430404E-13));
#255=CARTESIAN_POINT('',(0.,-2.22044604925031E-13,0.));
#256=CARTESIAN_POINT('',(0.,-2.22044604925031E-13,0.));
#257=CARTESIAN_POINT('',(0.,1000.,-2.8421709430404E-13));
#258=CARTESIAN_POINT('Origin',(0.,1000.,150.));
#259=CARTESIAN_POINT('',(0.,1000.,150.));
#260=CARTESIAN_POINT('',(0.,1000.,150.));
#261=CARTESIAN_POINT('',(0.,-2.22044604925031E-13,150.));
#262=CARTESIAN_POINT('',(0.,-2.22044604925031E-13,150.));
#263=CARTESIAN_POINT('',(0.,1000.,150.));
#264=CARTESIAN_POINT('Origin',(11.2683869545393,1000.,150.));
#265=CARTESIAN_POINT('',(11.2683869545393,1000.,150.));
#266=CARTESIAN_POINT('',(0.,1000.,150.));
#267=CARTESIAN_POINT('',(11.2683869545393,-2.22044604925031E-13,150.));
#268=CARTESIAN_POINT('',(0.,-2.22044604925031E-13,150.));
#269=CARTESIAN_POINT('',(11.2683869545393,1000.,150.));
#270=CARTESIAN_POINT('Origin',(15.6407723761357,1000.,137.986969785011));
#271=CARTESIAN_POINT('',(15.6407723761357,1000.,137.986969785011));
#272=CARTESIAN_POINT('',(15.6407723761357,1000.,137.986969785011));
#273=CARTESIAN_POINT('',(15.6407723761357,-2.22044604925031E-13,137.986969785011));
#274=CARTESIAN_POINT('',(15.6407723761357,-2.22044604925031E-13,137.986969785011));
#275=CARTESIAN_POINT('',(15.6407723761357,1000.,137.986969785011));
#276=CARTESIAN_POINT('Origin',(17.0503113073146,1000.,138.5));
#277=CARTESIAN_POINT('Origin',(17.0503113073146,1000.,138.5));
#278=CARTESIAN_POINT('Origin',(17.0503113073146,-2.22044604925031E-13,138.5));
#279=CARTESIAN_POINT('Origin',(19.,-2.22044604925031E-13,75.));
#280=CARTESIAN_POINT('Origin',(19.,1000.,74.9999999999997));
#281=UNCERTAINTY_MEASURE_WITH_UNIT(LENGTH_MEASURE(0.01),#285,
'DISTANCE_ACCURACY_VALUE',
'Maximum model space distance between geometric entities at asserted c
onnectivities');
#282=UNCERTAINTY_MEASURE_WITH_UNIT(LENGTH_MEASURE(0.01),#285,
'DISTANCE_ACCURACY_VALUE',
'Maximum model space distance between geometric entities at asserted c
onnectivities');
#283=(
GEOMETRIC_REPRESENTATION_CONTEXT(3)
GLOBAL_UNCERTAINTY_ASSIGNED_CONTEXT((#281))
GLOBAL_UNIT_ASSIGNED_CONTEXT((#285,#287,#288))
REPRESENTATION_CONTEXT('','3D')
);
#284=(
GEOMETRIC_REPRESENTATION_CONTEXT(3)
GLOBAL_UNCERTAINTY_ASSIGNED_CONTEXT((#282))
GLOBAL_UNIT_ASSIGNED_CONTEXT((#285,#287,#288))
REPRESENTATION_CONTEXT('','3D')
);
#285=(
LENGTH_UNIT()
NAMED_UNIT(*)
SI_UNIT(.MILLI.,.METRE.)
);
#286=(
LENGTH_UNIT()
NAMED_UNIT(*)
SI_UNIT($,.METRE.)
);
#287=(
NAMED_UNIT(*)
PLANE_ANGLE_UNIT()
SI_UNIT($,.RADIAN.)
);
#288=(
NAMED_UNIT(*)
SI_UNIT($,.STERADIAN.)
SOLID_ANGLE_UNIT()
);
#289=SHAPE_DEFINITION_REPRESENTATION(#290,#291);
#290=PRODUCT_DEFINITION_SHAPE('',$,#293);
#291=SHAPE_REPRESENTATION('',(#181),#283);
#292=PRODUCT_DEFINITION_CONTEXT('part definition',#297,'design');
#293=PRODUCT_DEFINITION('PPF008_CORRECT','PPF008_CORRECT v2',#294,#292);
#294=PRODUCT_DEFINITION_FORMATION('',$,#299);
#295=PRODUCT_RELATED_PRODUCT_CATEGORY('PPF008_CORRECT v2',
'PPF008_CORRECT v2',(#299));
#296=APPLICATION_PROTOCOL_DEFINITION('international standard',
'automotive_design',2009,#297);
#297=APPLICATION_CONTEXT(
'Core Data for Automotive Mechanical Design Process');
#298=PRODUCT_CONTEXT('part definition',#297,'mechanical');
#299=PRODUCT('PPF008_CORRECT','PPF008_CORRECT v2',$,(#298));
#300=PRESENTATION_STYLE_ASSIGNMENT((#301));
#301=SURFACE_STYLE_USAGE(.BOTH.,#302);
#302=SURFACE_SIDE_STYLE('',(#303));
#303=SURFACE_STYLE_FILL_AREA(#304);
#304=FILL_AREA_STYLE('Steel - Satin',(#305));
#305=FILL_AREA_STYLE_COLOUR('Steel - Satin',#306);
#306=COLOUR_RGB('Steel - Satin',0.627450980392157,0.627450980392157,0.627450980392157);
ENDSEC;
END-ISO-10303-21;
