ISO-10303-21;
HEADER;
/* Generated by software containing ST-Developer
 * from STEP Tools, Inc. (www.steptools.com) 
 */

FILE_DESCRIPTION(
/* description */ (''),
/* implementation_level */ '2;1');

FILE_NAME(
/* name */ '/Users/matt/Desktop/2-2149_EXPORT v3.step',
/* time_stamp */ '2021-01-20T16:32:08+00:00',
/* author */ (''),
/* organization */ (''),
/* preprocessor_version */ 'ST-DEVELOPER v18.1',
/* originating_system */ 'Autodesk Translation Framework v9.7.0.1280',
/* authorisation */ '');

FILE_SCHEMA (('AUTOMOTIVE_DESIGN { 1 0 10303 214 3 1 1 }'));
ENDSEC;

DATA;
#10=MECHANICAL_DESIGN_GEOMETRIC_PRESENTATION_REPRESENTATION('',(#17),#392);
#11=ITEM_DEFINED_TRANSFORMATION($,$,#218,#251);
#12=(
REPRESENTATION_RELATIONSHIP($,$,#403,#402)
REPRESENTATION_RELATIONSHIP_WITH_TRANSFORMATION(#11)
SHAPE_REPRESENTATION_RELATIONSHIP()
);
#13=CONTEXT_DEPENDENT_SHAPE_REPRESENTATION(#12,#401);
#14=NEXT_ASSEMBLY_USAGE_OCCURRENCE('EBL-2-2149:1','EBL-2-2149:1',
'EBL-2-2149:1',#405,#406,'EBL-2-2149:1');
#15=SHAPE_REPRESENTATION_RELATIONSHIP('SRR','None',#403,#16);
#16=ADVANCED_BREP_SHAPE_REPRESENTATION('',(#18),#391);
#17=STYLED_ITEM('',(#416),#18);
#18=MANIFOLD_SOLID_BREP('Body1',#204);
#19=TOROIDAL_SURFACE('',#240,71.5,3.);
#20=TOROIDAL_SURFACE('',#247,71.5,3.);
#21=FACE_BOUND('',#50,.T.);
#22=FACE_BOUND('',#54,.T.);
#23=FACE_BOUND('',#63,.T.);
#24=PLANE('',#224);
#25=PLANE('',#230);
#26=PLANE('',#234);
#27=PLANE('',#235);
#28=PLANE('',#250);
#29=CONICAL_SURFACE('',#222,51.,0.785398163397452);
#30=CONICAL_SURFACE('',#228,29.75,0.785398163397448);
#31=CONICAL_SURFACE('',#232,25.2,0.536435457604732);
#32=CONICAL_SURFACE('',#237,65.7882285676538,1.30899693899575);
#33=FACE_OUTER_BOUND('',#47,.T.);
#34=FACE_OUTER_BOUND('',#48,.T.);
#35=FACE_OUTER_BOUND('',#49,.T.);
#36=FACE_OUTER_BOUND('',#51,.T.);
#37=FACE_OUTER_BOUND('',#52,.T.);
#38=FACE_OUTER_BOUND('',#53,.T.);
#39=FACE_OUTER_BOUND('',#55,.T.);
#40=FACE_OUTER_BOUND('',#56,.T.);
#41=FACE_OUTER_BOUND('',#57,.T.);
#42=FACE_OUTER_BOUND('',#58,.T.);
#43=FACE_OUTER_BOUND('',#59,.T.);
#44=FACE_OUTER_BOUND('',#60,.T.);
#45=FACE_OUTER_BOUND('',#61,.T.);
#46=FACE_OUTER_BOUND('',#62,.T.);
#47=EDGE_LOOP('',(#137,#138,#139,#140));
#48=EDGE_LOOP('',(#141,#142,#143,#144));
#49=EDGE_LOOP('',(#145));
#50=EDGE_LOOP('',(#146));
#51=EDGE_LOOP('',(#147,#148,#149,#150));
#52=EDGE_LOOP('',(#151,#152,#153,#154));
#53=EDGE_LOOP('',(#155));
#54=EDGE_LOOP('',(#156));
#55=EDGE_LOOP('',(#157,#158,#159,#160));
#56=EDGE_LOOP('',(#161));
#57=EDGE_LOOP('',(#162));
#58=EDGE_LOOP('',(#163,#164,#165,#166,#167));
#59=EDGE_LOOP('',(#168,#169,#170,#171,#172,#173));
#60=EDGE_LOOP('',(#174,#175,#176,#177,#178,#179));
#61=EDGE_LOOP('',(#180,#181,#182,#183,#184));
#62=EDGE_LOOP('',(#185));
#63=EDGE_LOOP('',(#186));
#64=LINE('',#335,#71);
#65=LINE('',#340,#72);
#66=LINE('',#347,#73);
#67=LINE('',#351,#74);
#68=LINE('',#358,#75);
#69=LINE('',#368,#76);
#70=LINE('',#380,#77);
#71=VECTOR('',#260,51.5);
#72=VECTOR('',#267,51.);
#73=VECTOR('',#276,30.);
#74=VECTOR('',#281,29.75);
#75=VECTOR('',#290,25.2);
#76=VECTOR('',#303,65.7882285676538);
#77=VECTOR('',#318,74.5);
#78=CIRCLE('',#220,51.5);
#79=CIRCLE('',#221,51.5);
#80=CIRCLE('',#223,50.5);
#81=CIRCLE('',#225,30.);
#82=CIRCLE('',#227,30.);
#83=CIRCLE('',#229,29.5);
#84=CIRCLE('',#231,27.4);
#85=CIRCLE('',#233,23.);
#86=CIRCLE('',#236,59.3);
#87=CIRCLE('',#238,72.2764571353076);
#88=CIRCLE('',#239,72.2764571353076);
#89=CIRCLE('',#241,74.5);
#90=CIRCLE('',#242,3.);
#91=CIRCLE('',#243,74.5);
#92=CIRCLE('',#245,74.5);
#93=CIRCLE('',#246,74.5);
#94=CIRCLE('',#248,71.5);
#95=CIRCLE('',#249,3.);
#96=VERTEX_POINT('',#332);
#97=VERTEX_POINT('',#334);
#98=VERTEX_POINT('',#338);
#99=VERTEX_POINT('',#342);
#100=VERTEX_POINT('',#345);
#101=VERTEX_POINT('',#349);
#102=VERTEX_POINT('',#353);
#103=VERTEX_POINT('',#356);
#104=VERTEX_POINT('',#361);
#105=VERTEX_POINT('',#364);
#106=VERTEX_POINT('',#365);
#107=VERTEX_POINT('',#370);
#108=VERTEX_POINT('',#371);
#109=VERTEX_POINT('',#376);
#110=VERTEX_POINT('',#377);
#111=VERTEX_POINT('',#382);
#112=EDGE_CURVE('',#96,#96,#78,.T.);
#113=EDGE_CURVE('',#96,#97,#64,.T.);
#114=EDGE_CURVE('',#97,#97,#79,.T.);
#115=EDGE_CURVE('',#98,#98,#80,.T.);
#116=EDGE_CURVE('',#98,#96,#65,.T.);
#117=EDGE_CURVE('',#99,#99,#81,.T.);
#118=EDGE_CURVE('',#100,#100,#82,.T.);
#119=EDGE_CURVE('',#100,#99,#66,.T.);
#120=EDGE_CURVE('',#101,#101,#83,.T.);
#121=EDGE_CURVE('',#101,#100,#67,.T.);
#122=EDGE_CURVE('',#102,#102,#84,.T.);
#123=EDGE_CURVE('',#103,#103,#85,.T.);
#124=EDGE_CURVE('',#103,#102,#68,.T.);
#125=EDGE_CURVE('',#104,#104,#86,.T.);
#126=EDGE_CURVE('',#105,#106,#87,.T.);
#127=EDGE_CURVE('',#106,#105,#88,.T.);
#128=EDGE_CURVE('',#106,#104,#69,.T.);
#129=EDGE_CURVE('',#107,#108,#89,.T.);
#130=EDGE_CURVE('',#107,#105,#90,.T.);
#131=EDGE_CURVE('',#108,#107,#91,.T.);
#132=EDGE_CURVE('',#109,#110,#92,.T.);
#133=EDGE_CURVE('',#110,#109,#93,.T.);
#134=EDGE_CURVE('',#110,#108,#70,.T.);
#135=EDGE_CURVE('',#111,#111,#94,.T.);
#136=EDGE_CURVE('',#111,#109,#95,.T.);
#137=ORIENTED_EDGE('',*,*,#112,.F.);
#138=ORIENTED_EDGE('',*,*,#113,.T.);
#139=ORIENTED_EDGE('',*,*,#114,.T.);
#140=ORIENTED_EDGE('',*,*,#113,.F.);
#141=ORIENTED_EDGE('',*,*,#115,.F.);
#142=ORIENTED_EDGE('',*,*,#116,.T.);
#143=ORIENTED_EDGE('',*,*,#112,.T.);
#144=ORIENTED_EDGE('',*,*,#116,.F.);
#145=ORIENTED_EDGE('',*,*,#115,.T.);
#146=ORIENTED_EDGE('',*,*,#117,.F.);
#147=ORIENTED_EDGE('',*,*,#118,.F.);
#148=ORIENTED_EDGE('',*,*,#119,.T.);
#149=ORIENTED_EDGE('',*,*,#117,.T.);
#150=ORIENTED_EDGE('',*,*,#119,.F.);
#151=ORIENTED_EDGE('',*,*,#120,.F.);
#152=ORIENTED_EDGE('',*,*,#121,.T.);
#153=ORIENTED_EDGE('',*,*,#118,.T.);
#154=ORIENTED_EDGE('',*,*,#121,.F.);
#155=ORIENTED_EDGE('',*,*,#120,.T.);
#156=ORIENTED_EDGE('',*,*,#122,.F.);
#157=ORIENTED_EDGE('',*,*,#123,.F.);
#158=ORIENTED_EDGE('',*,*,#124,.T.);
#159=ORIENTED_EDGE('',*,*,#122,.T.);
#160=ORIENTED_EDGE('',*,*,#124,.F.);
#161=ORIENTED_EDGE('',*,*,#123,.T.);
#162=ORIENTED_EDGE('',*,*,#125,.F.);
#163=ORIENTED_EDGE('',*,*,#126,.F.);
#164=ORIENTED_EDGE('',*,*,#127,.F.);
#165=ORIENTED_EDGE('',*,*,#128,.T.);
#166=ORIENTED_EDGE('',*,*,#125,.T.);
#167=ORIENTED_EDGE('',*,*,#128,.F.);
#168=ORIENTED_EDGE('',*,*,#129,.F.);
#169=ORIENTED_EDGE('',*,*,#130,.T.);
#170=ORIENTED_EDGE('',*,*,#126,.T.);
#171=ORIENTED_EDGE('',*,*,#127,.T.);
#172=ORIENTED_EDGE('',*,*,#130,.F.);
#173=ORIENTED_EDGE('',*,*,#131,.F.);
#174=ORIENTED_EDGE('',*,*,#132,.F.);
#175=ORIENTED_EDGE('',*,*,#133,.F.);
#176=ORIENTED_EDGE('',*,*,#134,.T.);
#177=ORIENTED_EDGE('',*,*,#131,.T.);
#178=ORIENTED_EDGE('',*,*,#129,.T.);
#179=ORIENTED_EDGE('',*,*,#134,.F.);
#180=ORIENTED_EDGE('',*,*,#135,.F.);
#181=ORIENTED_EDGE('',*,*,#136,.T.);
#182=ORIENTED_EDGE('',*,*,#132,.T.);
#183=ORIENTED_EDGE('',*,*,#133,.T.);
#184=ORIENTED_EDGE('',*,*,#136,.F.);
#185=ORIENTED_EDGE('',*,*,#135,.T.);
#186=ORIENTED_EDGE('',*,*,#114,.F.);
#187=CYLINDRICAL_SURFACE('',#219,51.5);
#188=CYLINDRICAL_SURFACE('',#226,30.);
#189=CYLINDRICAL_SURFACE('',#244,74.5);
#190=ADVANCED_FACE('',(#33),#187,.T.);
#191=ADVANCED_FACE('',(#34),#29,.T.);
#192=ADVANCED_FACE('',(#35,#21),#24,.T.);
#193=ADVANCED_FACE('',(#36),#188,.T.);
#194=ADVANCED_FACE('',(#37),#30,.T.);
#195=ADVANCED_FACE('',(#38,#22),#25,.T.);
#196=ADVANCED_FACE('',(#39),#31,.T.);
#197=ADVANCED_FACE('',(#40),#26,.T.);
#198=ADVANCED_FACE('',(#41),#27,.T.);
#199=ADVANCED_FACE('',(#42),#32,.T.);
#200=ADVANCED_FACE('',(#43),#19,.T.);
#201=ADVANCED_FACE('',(#44),#189,.T.);
#202=ADVANCED_FACE('',(#45),#20,.T.);
#203=ADVANCED_FACE('',(#46,#23),#28,.T.);
#204=CLOSED_SHELL('',(#190,#191,#192,#193,#194,#195,#196,#197,#198,#199,
#200,#201,#202,#203));
#205=DERIVED_UNIT_ELEMENT(#207,1.);
#206=DERIVED_UNIT_ELEMENT(#394,-3.);
#207=(
MASS_UNIT()
NAMED_UNIT(*)
SI_UNIT(.KILO.,.GRAM.)
);
#208=DERIVED_UNIT((#205,#206));
#209=MEASURE_REPRESENTATION_ITEM('density measure',
POSITIVE_RATIO_MEASURE(7850.),#208);
#210=PROPERTY_DEFINITION_REPRESENTATION(#215,#212);
#211=PROPERTY_DEFINITION_REPRESENTATION(#216,#213);
#212=REPRESENTATION('material name',(#214),#391);
#213=REPRESENTATION('density',(#209),#391);
#214=DESCRIPTIVE_REPRESENTATION_ITEM('Steel','Steel');
#215=PROPERTY_DEFINITION('material property','material name',#406);
#216=PROPERTY_DEFINITION('material property','density of part',#406);
#217=AXIS2_PLACEMENT_3D('placement',#329,#252,#253);
#218=AXIS2_PLACEMENT_3D('placement',#330,#254,#255);
#219=AXIS2_PLACEMENT_3D('',#331,#256,#257);
#220=AXIS2_PLACEMENT_3D('',#333,#258,#259);
#221=AXIS2_PLACEMENT_3D('',#336,#261,#262);
#222=AXIS2_PLACEMENT_3D('',#337,#263,#264);
#223=AXIS2_PLACEMENT_3D('',#339,#265,#266);
#224=AXIS2_PLACEMENT_3D('',#341,#268,#269);
#225=AXIS2_PLACEMENT_3D('',#343,#270,#271);
#226=AXIS2_PLACEMENT_3D('',#344,#272,#273);
#227=AXIS2_PLACEMENT_3D('',#346,#274,#275);
#228=AXIS2_PLACEMENT_3D('',#348,#277,#278);
#229=AXIS2_PLACEMENT_3D('',#350,#279,#280);
#230=AXIS2_PLACEMENT_3D('',#352,#282,#283);
#231=AXIS2_PLACEMENT_3D('',#354,#284,#285);
#232=AXIS2_PLACEMENT_3D('',#355,#286,#287);
#233=AXIS2_PLACEMENT_3D('',#357,#288,#289);
#234=AXIS2_PLACEMENT_3D('',#359,#291,#292);
#235=AXIS2_PLACEMENT_3D('',#360,#293,#294);
#236=AXIS2_PLACEMENT_3D('',#362,#295,#296);
#237=AXIS2_PLACEMENT_3D('',#363,#297,#298);
#238=AXIS2_PLACEMENT_3D('',#366,#299,#300);
#239=AXIS2_PLACEMENT_3D('',#367,#301,#302);
#240=AXIS2_PLACEMENT_3D('',#369,#304,#305);
#241=AXIS2_PLACEMENT_3D('',#372,#306,#307);
#242=AXIS2_PLACEMENT_3D('',#373,#308,#309);
#243=AXIS2_PLACEMENT_3D('',#374,#310,#311);
#244=AXIS2_PLACEMENT_3D('',#375,#312,#313);
#245=AXIS2_PLACEMENT_3D('',#378,#314,#315);
#246=AXIS2_PLACEMENT_3D('',#379,#316,#317);
#247=AXIS2_PLACEMENT_3D('',#381,#319,#320);
#248=AXIS2_PLACEMENT_3D('',#383,#321,#322);
#249=AXIS2_PLACEMENT_3D('',#384,#323,#324);
#250=AXIS2_PLACEMENT_3D('',#385,#325,#326);
#251=AXIS2_PLACEMENT_3D('',#386,#327,#328);
#252=DIRECTION('axis',(0.,0.,1.));
#253=DIRECTION('refdir',(1.,0.,0.));
#254=DIRECTION('axis',(0.,0.,1.));
#255=DIRECTION('refdir',(1.,0.,0.));
#256=DIRECTION('center_axis',(-1.,0.,0.));
#257=DIRECTION('ref_axis',(0.,-1.,0.));
#258=DIRECTION('center_axis',(-1.,0.,0.));
#259=DIRECTION('ref_axis',(0.,0.,1.));
#260=DIRECTION('',(1.,0.,0.));
#261=DIRECTION('center_axis',(-1.,0.,0.));
#262=DIRECTION('ref_axis',(0.,0.,1.));
#263=DIRECTION('center_axis',(1.,0.,0.));
#264=DIRECTION('ref_axis',(0.,-1.,0.));
#265=DIRECTION('center_axis',(-1.,0.,0.));
#266=DIRECTION('ref_axis',(0.,0.,1.));
#267=DIRECTION('',(0.707106781186545,0.70710678118655,-8.65956056235496E-17));
#268=DIRECTION('center_axis',(-1.,0.,0.));
#269=DIRECTION('ref_axis',(0.,0.,1.));
#270=DIRECTION('center_axis',(-1.,0.,0.));
#271=DIRECTION('ref_axis',(0.,0.,1.));
#272=DIRECTION('center_axis',(-1.,0.,0.));
#273=DIRECTION('ref_axis',(0.,-1.,0.));
#274=DIRECTION('center_axis',(-1.,0.,0.));
#275=DIRECTION('ref_axis',(0.,0.,1.));
#276=DIRECTION('',(1.,0.,0.));
#277=DIRECTION('center_axis',(1.,0.,0.));
#278=DIRECTION('ref_axis',(0.,-1.,0.));
#279=DIRECTION('center_axis',(-1.,0.,0.));
#280=DIRECTION('ref_axis',(0.,0.,1.));
#281=DIRECTION('',(0.707106781186547,0.707106781186547,-8.65956056235493E-17));
#282=DIRECTION('center_axis',(-1.,0.,0.));
#283=DIRECTION('ref_axis',(0.,0.,1.));
#284=DIRECTION('center_axis',(-1.,0.,0.));
#285=DIRECTION('ref_axis',(0.,0.,1.));
#286=DIRECTION('center_axis',(1.,0.,0.));
#287=DIRECTION('ref_axis',(0.,-1.,0.));
#288=DIRECTION('center_axis',(-1.,0.,0.));
#289=DIRECTION('ref_axis',(0.,0.,1.));
#290=DIRECTION('',(0.859535888020661,0.51107539287715,-6.25886844009978E-17));
#291=DIRECTION('center_axis',(-1.,0.,0.));
#292=DIRECTION('ref_axis',(0.,0.,1.));
#293=DIRECTION('center_axis',(1.,0.,0.));
#294=DIRECTION('ref_axis',(0.,0.,-1.));
#295=DIRECTION('center_axis',(-1.,0.,0.));
#296=DIRECTION('ref_axis',(0.,0.,1.));
#297=DIRECTION('center_axis',(-1.,0.,0.));
#298=DIRECTION('ref_axis',(0.,-1.,0.));
#299=DIRECTION('center_axis',(-1.,0.,0.));
#300=DIRECTION('ref_axis',(0.,0.,1.));
#301=DIRECTION('center_axis',(-1.,0.,0.));
#302=DIRECTION('ref_axis',(0.,0.,1.));
#303=DIRECTION('',(0.258819045102521,-0.965925826289068,1.18291797137867E-16));
#304=DIRECTION('center_axis',(-1.,0.,0.));
#305=DIRECTION('ref_axis',(0.,0.,1.));
#306=DIRECTION('center_axis',(-1.,0.,0.));
#307=DIRECTION('ref_axis',(0.,0.,1.));
#308=DIRECTION('center_axis',(0.,-1.,1.22464679914735E-16));
#309=DIRECTION('ref_axis',(0.,-1.22464679914735E-16,-1.));
#310=DIRECTION('center_axis',(-1.,0.,0.));
#311=DIRECTION('ref_axis',(0.,0.,1.));
#312=DIRECTION('center_axis',(-1.,0.,0.));
#313=DIRECTION('ref_axis',(0.,-1.,0.));
#314=DIRECTION('center_axis',(-1.,0.,0.));
#315=DIRECTION('ref_axis',(0.,0.,1.));
#316=DIRECTION('center_axis',(-1.,0.,0.));
#317=DIRECTION('ref_axis',(0.,0.,1.));
#318=DIRECTION('',(1.,0.,0.));
#319=DIRECTION('center_axis',(-1.,0.,0.));
#320=DIRECTION('ref_axis',(0.,0.,1.));
#321=DIRECTION('center_axis',(-1.,0.,0.));
#322=DIRECTION('ref_axis',(0.,0.,1.));
#323=DIRECTION('center_axis',(0.,-1.,1.22464679914735E-16));
#324=DIRECTION('ref_axis',(0.,-1.22464679914735E-16,-1.));
#325=DIRECTION('center_axis',(-1.,0.,0.));
#326=DIRECTION('ref_axis',(0.,0.,1.));
#327=DIRECTION('',(0.,0.,1.));
#328=DIRECTION('',(1.,0.,0.));
#329=CARTESIAN_POINT('',(0.,0.,0.));
#330=CARTESIAN_POINT('',(0.,0.,0.));
#331=CARTESIAN_POINT('Origin',(-12.,-1.18660636871937E-15,0.));
#332=CARTESIAN_POINT('',(-16.,51.5,-6.30693101560887E-15));
#333=CARTESIAN_POINT('Origin',(-16.,-1.18660636871937E-15,0.));
#334=CARTESIAN_POINT('',(-7.99999999999999,51.5,-6.30693101560887E-15));
#335=CARTESIAN_POINT('',(-12.,51.5,-6.30693101560887E-15));
#336=CARTESIAN_POINT('Origin',(-7.99999999999999,-1.18660636871937E-15,
0.));
#337=CARTESIAN_POINT('Origin',(-16.5,-1.18660636871937E-15,0.));
#338=CARTESIAN_POINT('',(-17.,50.5,-6.18446633569413E-15));
#339=CARTESIAN_POINT('Origin',(-17.,-1.18660636871937E-15,0.));
#340=CARTESIAN_POINT('',(-16.5,51.,-6.2456986756515E-15));
#341=CARTESIAN_POINT('Origin',(-17.,-30.,0.));
#342=CARTESIAN_POINT('',(-17.,30.,-3.67394039744206E-15));
#343=CARTESIAN_POINT('Origin',(-17.,-1.18660636871937E-15,0.));
#344=CARTESIAN_POINT('Origin',(-23.05,-1.18660636871937E-15,0.));
#345=CARTESIAN_POINT('',(-29.1,30.,-3.67394039744206E-15));
#346=CARTESIAN_POINT('Origin',(-29.1,-1.18660636871937E-15,0.));
#347=CARTESIAN_POINT('',(-23.05,30.,-3.67394039744206E-15));
#348=CARTESIAN_POINT('Origin',(-29.35,-1.18660636871937E-15,0.));
#349=CARTESIAN_POINT('',(-29.6,29.5,-3.61270805748469E-15));
#350=CARTESIAN_POINT('Origin',(-29.6,-1.18660636871937E-15,0.));
#351=CARTESIAN_POINT('',(-29.35,29.75,-3.64332422746338E-15));
#352=CARTESIAN_POINT('Origin',(-29.6,-27.4,0.));
#353=CARTESIAN_POINT('',(-29.6,27.4,-3.35553222966375E-15));
#354=CARTESIAN_POINT('Origin',(-29.6,-1.18660636871937E-15,0.));
#355=CARTESIAN_POINT('Origin',(-33.3,-1.18660636871937E-15,0.));
#356=CARTESIAN_POINT('',(-37.,23.,-2.81668763803891E-15));
#357=CARTESIAN_POINT('Origin',(-37.,-1.18660636871937E-15,0.));
#358=CARTESIAN_POINT('',(-33.3,25.2,-3.08610993385133E-15));
#359=CARTESIAN_POINT('Origin',(-37.,0.,0.));
#360=CARTESIAN_POINT('Origin',(37.,-59.3,0.));
#361=CARTESIAN_POINT('',(37.,59.3,-7.2621555189438E-15));
#362=CARTESIAN_POINT('Origin',(37.,-1.18660636871937E-15,0.));
#363=CARTESIAN_POINT('Origin',(35.2614843949886,-1.18660636871937E-15,0.));
#364=CARTESIAN_POINT('',(33.5229687899773,-1.00379195571659E-14,-72.2764571353076));
#365=CARTESIAN_POINT('',(33.5229687899773,72.2764571353076,-8.85131318844653E-15));
#366=CARTESIAN_POINT('Origin',(33.5229687899773,-1.18660636871937E-15,0.));
#367=CARTESIAN_POINT('Origin',(33.5229687899773,-1.18660636871937E-15,0.));
#368=CARTESIAN_POINT('',(35.2614843949886,65.7882285676538,-8.05673435369517E-15));
#369=CARTESIAN_POINT('Origin',(30.6251913111101,-1.18660636871937E-15,0.));
#370=CARTESIAN_POINT('',(30.6251913111101,-1.03102250223671E-14,-74.5));
#371=CARTESIAN_POINT('',(30.6251913111101,74.5,-9.12361865364778E-15));
#372=CARTESIAN_POINT('Origin',(30.6251913111101,-1.18660636871937E-15,0.));
#373=CARTESIAN_POINT('Origin',(30.6251913111101,-9.94283098262294E-15,-71.5));
#374=CARTESIAN_POINT('Origin',(30.6251913111101,-1.18660636871937E-15,0.));
#375=CARTESIAN_POINT('Origin',(12.812595655555,-1.18660636871937E-15,0.));
#376=CARTESIAN_POINT('',(-4.99999999999999,-1.03102250223671E-14,-74.5));
#377=CARTESIAN_POINT('',(-4.99999999999999,74.5,-9.12361865364778E-15));
#378=CARTESIAN_POINT('Origin',(-4.99999999999999,-1.18660636871937E-15,
0.));
#379=CARTESIAN_POINT('Origin',(-4.99999999999999,-1.18660636871937E-15,
0.));
#380=CARTESIAN_POINT('',(12.812595655555,74.5,-9.12361865364778E-15));
#381=CARTESIAN_POINT('Origin',(-4.99999999999999,-1.18660636871937E-15,
0.));
#382=CARTESIAN_POINT('',(-7.99999999999999,-9.94283098262294E-15,-71.5));
#383=CARTESIAN_POINT('Origin',(-7.99999999999999,-1.18660636871937E-15,
0.));
#384=CARTESIAN_POINT('Origin',(-4.99999999999999,-9.94283098262294E-15,
-71.5));
#385=CARTESIAN_POINT('Origin',(-7.99999999999999,-51.5,0.));
#386=CARTESIAN_POINT('',(0.,0.,0.));
#387=UNCERTAINTY_MEASURE_WITH_UNIT(LENGTH_MEASURE(0.01),#393,
'DISTANCE_ACCURACY_VALUE',
'Maximum model space distance between geometric entities at asserted c
onnectivities');
#388=UNCERTAINTY_MEASURE_WITH_UNIT(LENGTH_MEASURE(0.01),#393,
'DISTANCE_ACCURACY_VALUE',
'Maximum model space distance between geometric entities at asserted c
onnectivities');
#389=UNCERTAINTY_MEASURE_WITH_UNIT(LENGTH_MEASURE(0.01),#393,
'DISTANCE_ACCURACY_VALUE',
'Maximum model space distance between geometric entities at asserted c
onnectivities');
#390=(
GEOMETRIC_REPRESENTATION_CONTEXT(3)
GLOBAL_UNCERTAINTY_ASSIGNED_CONTEXT((#387))
GLOBAL_UNIT_ASSIGNED_CONTEXT((#393,#395,#396))
REPRESENTATION_CONTEXT('','3D')
);
#391=(
GEOMETRIC_REPRESENTATION_CONTEXT(3)
GLOBAL_UNCERTAINTY_ASSIGNED_CONTEXT((#388))
GLOBAL_UNIT_ASSIGNED_CONTEXT((#393,#395,#396))
REPRESENTATION_CONTEXT('','3D')
);
#392=(
GEOMETRIC_REPRESENTATION_CONTEXT(3)
GLOBAL_UNCERTAINTY_ASSIGNED_CONTEXT((#389))
GLOBAL_UNIT_ASSIGNED_CONTEXT((#393,#395,#396))
REPRESENTATION_CONTEXT('','3D')
);
#393=(
LENGTH_UNIT()
NAMED_UNIT(*)
SI_UNIT(.MILLI.,.METRE.)
);
#394=(
LENGTH_UNIT()
NAMED_UNIT(*)
SI_UNIT($,.METRE.)
);
#395=(
NAMED_UNIT(*)
PLANE_ANGLE_UNIT()
SI_UNIT($,.RADIAN.)
);
#396=(
NAMED_UNIT(*)
SI_UNIT($,.STERADIAN.)
SOLID_ANGLE_UNIT()
);
#397=SHAPE_DEFINITION_REPRESENTATION(#399,#402);
#398=SHAPE_DEFINITION_REPRESENTATION(#400,#403);
#399=PRODUCT_DEFINITION_SHAPE('',$,#405);
#400=PRODUCT_DEFINITION_SHAPE('',$,#406);
#401=PRODUCT_DEFINITION_SHAPE($,$,#14);
#402=SHAPE_REPRESENTATION('',(#217,#251),#390);
#403=SHAPE_REPRESENTATION('',(#218),#391);
#404=PRODUCT_DEFINITION_CONTEXT('part definition',#412,'design');
#405=PRODUCT_DEFINITION('2-2149_EXPORT','2-2149_EXPORT v3',#407,#404);
#406=PRODUCT_DEFINITION('EBL-2-2149','EBL-2-2149',#408,#404);
#407=PRODUCT_DEFINITION_FORMATION('',$,#414);
#408=PRODUCT_DEFINITION_FORMATION('',$,#415);
#409=PRODUCT_RELATED_PRODUCT_CATEGORY('2-2149_EXPORT v3',
'2-2149_EXPORT v3',(#414));
#410=PRODUCT_RELATED_PRODUCT_CATEGORY('EBL-2-2149','EBL-2-2149',(#415));
#411=APPLICATION_PROTOCOL_DEFINITION('international standard',
'automotive_design',2009,#412);
#412=APPLICATION_CONTEXT(
'Core Data for Automotive Mechanical Design Process');
#413=PRODUCT_CONTEXT('part definition',#412,'mechanical');
#414=PRODUCT('2-2149_EXPORT','2-2149_EXPORT v3',$,(#413));
#415=PRODUCT('EBL-2-2149','EBL-2-2149',$,(#413));
#416=PRESENTATION_STYLE_ASSIGNMENT((#417));
#417=SURFACE_STYLE_USAGE(.BOTH.,#418);
#418=SURFACE_SIDE_STYLE('',(#419));
#419=SURFACE_STYLE_FILL_AREA(#420);
#420=FILL_AREA_STYLE('Steel - Satin',(#421));
#421=FILL_AREA_STYLE_COLOUR('Steel - Satin',#422);
#422=COLOUR_RGB('Steel - Satin',0.627450980392157,0.627450980392157,0.627450980392157);
ENDSEC;
END-ISO-10303-21;
