ISO-10303-21;
HEADER;
/* Generated by software containing ST-Developer
 * from STEP Tools, Inc. (www.steptools.com) 
 */

FILE_DESCRIPTION(
/* description */ (''),
/* implementation_level */ '2;1');

FILE_NAME(
/* name */ '2-2107 v2.step',
/* time_stamp */ '2023-05-24T12:50:45+01:00',
/* author */ (''),
/* organization */ (''),
/* preprocessor_version */ 'ST-DEVELOPER v19.2',
/* originating_system */ 'Autodesk Translation Framework v11.17.0.187',

/* authorisation */ '');

FILE_SCHEMA (('AUTOMOTIVE_DESIGN { 1 0 10303 214 3 1 1 }'));
ENDSEC;

DATA;
#10=MECHANICAL_DESIGN_GEOMETRIC_PRESENTATION_REPRESENTATION('',(#13),#353);
#11=SHAPE_REPRESENTATION_RELATIONSHIP('SRR','None',#360,#12);
#12=ADVANCED_BREP_SHAPE_REPRESENTATION('',(#14),#352);
#13=STYLED_ITEM('',(#369),#14);
#14=MANIFOLD_SOLID_BREP('Body1',#186);
#15=TOROIDAL_SURFACE('',#215,50.85,3.);
#16=TOROIDAL_SURFACE('',#222,48.85,4.99999999999999);
#17=CYLINDRICAL_SURFACE('',#205,30.);
#18=CYLINDRICAL_SURFACE('',#211,35.5);
#19=CYLINDRICAL_SURFACE('',#219,53.85);
#20=FACE_BOUND('',#43,.T.);
#21=FACE_BOUND('',#46,.T.);
#22=FACE_BOUND('',#50,.T.);
#23=PLANE('',#203);
#24=PLANE('',#207);
#25=PLANE('',#213);
#26=PLANE('',#228);
#27=PLANE('',#229);
#28=FACE_OUTER_BOUND('',#41,.T.);
#29=FACE_OUTER_BOUND('',#42,.T.);
#30=FACE_OUTER_BOUND('',#44,.T.);
#31=FACE_OUTER_BOUND('',#45,.T.);
#32=FACE_OUTER_BOUND('',#47,.T.);
#33=FACE_OUTER_BOUND('',#48,.T.);
#34=FACE_OUTER_BOUND('',#49,.T.);
#35=FACE_OUTER_BOUND('',#51,.T.);
#36=FACE_OUTER_BOUND('',#52,.T.);
#37=FACE_OUTER_BOUND('',#53,.T.);
#38=FACE_OUTER_BOUND('',#54,.T.);
#39=FACE_OUTER_BOUND('',#55,.T.);
#40=FACE_OUTER_BOUND('',#56,.T.);
#41=EDGE_LOOP('',(#124,#125,#126,#127));
#42=EDGE_LOOP('',(#128));
#43=EDGE_LOOP('',(#129));
#44=EDGE_LOOP('',(#130,#131,#132,#133));
#45=EDGE_LOOP('',(#134));
#46=EDGE_LOOP('',(#135));
#47=EDGE_LOOP('',(#136,#137,#138,#139));
#48=EDGE_LOOP('',(#140,#141,#142,#143));
#49=EDGE_LOOP('',(#144));
#50=EDGE_LOOP('',(#145));
#51=EDGE_LOOP('',(#146,#147,#148,#149,#150));
#52=EDGE_LOOP('',(#151,#152,#153,#154,#155,#156));
#53=EDGE_LOOP('',(#157,#158,#159,#160,#161,#162));
#54=EDGE_LOOP('',(#163,#164,#165,#166,#167));
#55=EDGE_LOOP('',(#168));
#56=EDGE_LOOP('',(#169));
#57=LINE('',#303,#63);
#58=LINE('',#311,#64);
#59=LINE('',#318,#65);
#60=LINE('',#322,#66);
#61=LINE('',#336,#67);
#62=LINE('',#347,#68);
#63=VECTOR('',#236,26.2320508075689);
#64=VECTOR('',#247,30.);
#65=VECTOR('',#256,35.25);
#66=VECTOR('',#261,35.5);
#67=VECTOR('',#278,53.85);
#68=VECTOR('',#293,47.4800503583142);
#69=CIRCLE('',#201,27.9641016151378);
#70=CIRCLE('',#202,24.5);
#71=CIRCLE('',#204,30.);
#72=CIRCLE('',#206,30.);
#73=CIRCLE('',#208,35.);
#74=CIRCLE('',#210,35.5);
#75=CIRCLE('',#212,35.5);
#76=CIRCLE('',#214,50.85);
#77=CIRCLE('',#216,53.85);
#78=CIRCLE('',#217,53.85);
#79=CIRCLE('',#218,3.);
#80=CIRCLE('',#220,53.85);
#81=CIRCLE('',#221,53.85);
#82=CIRCLE('',#223,50.5601007166283);
#83=CIRCLE('',#224,50.5601007166283);
#84=CIRCLE('',#225,4.99999999999999);
#85=CIRCLE('',#227,44.4);
#86=VERTEX_POINT('',#300);
#87=VERTEX_POINT('',#302);
#88=VERTEX_POINT('',#306);
#89=VERTEX_POINT('',#309);
#90=VERTEX_POINT('',#313);
#91=VERTEX_POINT('',#316);
#92=VERTEX_POINT('',#320);
#93=VERTEX_POINT('',#324);
#94=VERTEX_POINT('',#327);
#95=VERTEX_POINT('',#328);
#96=VERTEX_POINT('',#333);
#97=VERTEX_POINT('',#334);
#98=VERTEX_POINT('',#339);
#99=VERTEX_POINT('',#340);
#100=VERTEX_POINT('',#345);
#101=EDGE_CURVE('',#86,#86,#69,.T.);
#102=EDGE_CURVE('',#86,#87,#57,.T.);
#103=EDGE_CURVE('',#87,#87,#70,.T.);
#104=EDGE_CURVE('',#88,#88,#71,.T.);
#105=EDGE_CURVE('',#89,#89,#72,.T.);
#106=EDGE_CURVE('',#89,#88,#58,.T.);
#107=EDGE_CURVE('',#90,#90,#73,.T.);
#108=EDGE_CURVE('',#91,#91,#74,.T.);
#109=EDGE_CURVE('',#91,#90,#59,.T.);
#110=EDGE_CURVE('',#92,#92,#75,.T.);
#111=EDGE_CURVE('',#92,#91,#60,.T.);
#112=EDGE_CURVE('',#93,#93,#76,.T.);
#113=EDGE_CURVE('',#94,#95,#77,.T.);
#114=EDGE_CURVE('',#95,#94,#78,.T.);
#115=EDGE_CURVE('',#95,#93,#79,.T.);
#116=EDGE_CURVE('',#96,#97,#80,.T.);
#117=EDGE_CURVE('',#96,#94,#61,.T.);
#118=EDGE_CURVE('',#97,#96,#81,.T.);
#119=EDGE_CURVE('',#98,#99,#82,.T.);
#120=EDGE_CURVE('',#99,#98,#83,.T.);
#121=EDGE_CURVE('',#99,#97,#84,.T.);
#122=EDGE_CURVE('',#100,#100,#85,.T.);
#123=EDGE_CURVE('',#100,#98,#62,.T.);
#124=ORIENTED_EDGE('',*,*,#101,.F.);
#125=ORIENTED_EDGE('',*,*,#102,.T.);
#126=ORIENTED_EDGE('',*,*,#103,.T.);
#127=ORIENTED_EDGE('',*,*,#102,.F.);
#128=ORIENTED_EDGE('',*,*,#104,.F.);
#129=ORIENTED_EDGE('',*,*,#101,.T.);
#130=ORIENTED_EDGE('',*,*,#105,.F.);
#131=ORIENTED_EDGE('',*,*,#106,.T.);
#132=ORIENTED_EDGE('',*,*,#104,.T.);
#133=ORIENTED_EDGE('',*,*,#106,.F.);
#134=ORIENTED_EDGE('',*,*,#107,.F.);
#135=ORIENTED_EDGE('',*,*,#105,.T.);
#136=ORIENTED_EDGE('',*,*,#108,.F.);
#137=ORIENTED_EDGE('',*,*,#109,.T.);
#138=ORIENTED_EDGE('',*,*,#107,.T.);
#139=ORIENTED_EDGE('',*,*,#109,.F.);
#140=ORIENTED_EDGE('',*,*,#110,.F.);
#141=ORIENTED_EDGE('',*,*,#111,.T.);
#142=ORIENTED_EDGE('',*,*,#108,.T.);
#143=ORIENTED_EDGE('',*,*,#111,.F.);
#144=ORIENTED_EDGE('',*,*,#112,.F.);
#145=ORIENTED_EDGE('',*,*,#110,.T.);
#146=ORIENTED_EDGE('',*,*,#113,.F.);
#147=ORIENTED_EDGE('',*,*,#114,.F.);
#148=ORIENTED_EDGE('',*,*,#115,.T.);
#149=ORIENTED_EDGE('',*,*,#112,.T.);
#150=ORIENTED_EDGE('',*,*,#115,.F.);
#151=ORIENTED_EDGE('',*,*,#116,.F.);
#152=ORIENTED_EDGE('',*,*,#117,.T.);
#153=ORIENTED_EDGE('',*,*,#113,.T.);
#154=ORIENTED_EDGE('',*,*,#114,.T.);
#155=ORIENTED_EDGE('',*,*,#117,.F.);
#156=ORIENTED_EDGE('',*,*,#118,.F.);
#157=ORIENTED_EDGE('',*,*,#119,.F.);
#158=ORIENTED_EDGE('',*,*,#120,.F.);
#159=ORIENTED_EDGE('',*,*,#121,.T.);
#160=ORIENTED_EDGE('',*,*,#118,.T.);
#161=ORIENTED_EDGE('',*,*,#116,.T.);
#162=ORIENTED_EDGE('',*,*,#121,.F.);
#163=ORIENTED_EDGE('',*,*,#122,.F.);
#164=ORIENTED_EDGE('',*,*,#123,.T.);
#165=ORIENTED_EDGE('',*,*,#119,.T.);
#166=ORIENTED_EDGE('',*,*,#120,.T.);
#167=ORIENTED_EDGE('',*,*,#123,.F.);
#168=ORIENTED_EDGE('',*,*,#122,.T.);
#169=ORIENTED_EDGE('',*,*,#103,.F.);
#170=CONICAL_SURFACE('',#200,26.2320508075689,0.5235987755983);
#171=CONICAL_SURFACE('',#209,35.25,0.785398163397453);
#172=CONICAL_SURFACE('',#226,47.4800503583142,1.22173047639603);
#173=ADVANCED_FACE('',(#28),#170,.T.);
#174=ADVANCED_FACE('',(#29,#20),#23,.T.);
#175=ADVANCED_FACE('',(#30),#17,.T.);
#176=ADVANCED_FACE('',(#31,#21),#24,.T.);
#177=ADVANCED_FACE('',(#32),#171,.T.);
#178=ADVANCED_FACE('',(#33),#18,.T.);
#179=ADVANCED_FACE('',(#34,#22),#25,.T.);
#180=ADVANCED_FACE('',(#35),#15,.T.);
#181=ADVANCED_FACE('',(#36),#19,.T.);
#182=ADVANCED_FACE('',(#37),#16,.T.);
#183=ADVANCED_FACE('',(#38),#172,.T.);
#184=ADVANCED_FACE('',(#39),#26,.T.);
#185=ADVANCED_FACE('',(#40),#27,.T.);
#186=CLOSED_SHELL('',(#173,#174,#175,#176,#177,#178,#179,#180,#181,#182,
#183,#184,#185));
#187=DERIVED_UNIT_ELEMENT(#189,1.);
#188=DERIVED_UNIT_ELEMENT(#355,-3.);
#189=(
MASS_UNIT()
NAMED_UNIT(*)
SI_UNIT(.KILO.,.GRAM.)
);
#190=DERIVED_UNIT((#187,#188));
#191=MEASURE_REPRESENTATION_ITEM('density measure',
POSITIVE_RATIO_MEASURE(7850.),#190);
#192=PROPERTY_DEFINITION_REPRESENTATION(#197,#194);
#193=PROPERTY_DEFINITION_REPRESENTATION(#198,#195);
#194=REPRESENTATION('material name',(#196),#352);
#195=REPRESENTATION('density',(#191),#352);
#196=DESCRIPTIVE_REPRESENTATION_ITEM('Steel','Steel');
#197=PROPERTY_DEFINITION('material property','material name',#362);
#198=PROPERTY_DEFINITION('material property','density of part',#362);
#199=AXIS2_PLACEMENT_3D('placement',#298,#230,#231);
#200=AXIS2_PLACEMENT_3D('',#299,#232,#233);
#201=AXIS2_PLACEMENT_3D('',#301,#234,#235);
#202=AXIS2_PLACEMENT_3D('',#304,#237,#238);
#203=AXIS2_PLACEMENT_3D('',#305,#239,#240);
#204=AXIS2_PLACEMENT_3D('',#307,#241,#242);
#205=AXIS2_PLACEMENT_3D('',#308,#243,#244);
#206=AXIS2_PLACEMENT_3D('',#310,#245,#246);
#207=AXIS2_PLACEMENT_3D('',#312,#248,#249);
#208=AXIS2_PLACEMENT_3D('',#314,#250,#251);
#209=AXIS2_PLACEMENT_3D('',#315,#252,#253);
#210=AXIS2_PLACEMENT_3D('',#317,#254,#255);
#211=AXIS2_PLACEMENT_3D('',#319,#257,#258);
#212=AXIS2_PLACEMENT_3D('',#321,#259,#260);
#213=AXIS2_PLACEMENT_3D('',#323,#262,#263);
#214=AXIS2_PLACEMENT_3D('',#325,#264,#265);
#215=AXIS2_PLACEMENT_3D('',#326,#266,#267);
#216=AXIS2_PLACEMENT_3D('',#329,#268,#269);
#217=AXIS2_PLACEMENT_3D('',#330,#270,#271);
#218=AXIS2_PLACEMENT_3D('',#331,#272,#273);
#219=AXIS2_PLACEMENT_3D('',#332,#274,#275);
#220=AXIS2_PLACEMENT_3D('',#335,#276,#277);
#221=AXIS2_PLACEMENT_3D('',#337,#279,#280);
#222=AXIS2_PLACEMENT_3D('',#338,#281,#282);
#223=AXIS2_PLACEMENT_3D('',#341,#283,#284);
#224=AXIS2_PLACEMENT_3D('',#342,#285,#286);
#225=AXIS2_PLACEMENT_3D('',#343,#287,#288);
#226=AXIS2_PLACEMENT_3D('',#344,#289,#290);
#227=AXIS2_PLACEMENT_3D('',#346,#291,#292);
#228=AXIS2_PLACEMENT_3D('',#348,#294,#295);
#229=AXIS2_PLACEMENT_3D('',#349,#296,#297);
#230=DIRECTION('axis',(0.,0.,1.));
#231=DIRECTION('refdir',(1.,0.,0.));
#232=DIRECTION('center_axis',(1.,0.,0.));
#233=DIRECTION('ref_axis',(0.,1.,0.));
#234=DIRECTION('center_axis',(1.,0.,0.));
#235=DIRECTION('ref_axis',(0.,0.,-1.));
#236=DIRECTION('',(-0.866025403784438,0.500000000000001,6.12323399573677E-17));
#237=DIRECTION('center_axis',(1.,0.,0.));
#238=DIRECTION('ref_axis',(0.,0.,-1.));
#239=DIRECTION('center_axis',(-1.,0.,0.));
#240=DIRECTION('ref_axis',(0.,0.,1.));
#241=DIRECTION('center_axis',(1.,0.,0.));
#242=DIRECTION('ref_axis',(0.,0.,-1.));
#243=DIRECTION('center_axis',(1.,0.,0.));
#244=DIRECTION('ref_axis',(0.,1.,0.));
#245=DIRECTION('center_axis',(1.,0.,0.));
#246=DIRECTION('ref_axis',(0.,0.,-1.));
#247=DIRECTION('',(-1.,0.,0.));
#248=DIRECTION('center_axis',(-1.,0.,0.));
#249=DIRECTION('ref_axis',(0.,0.,1.));
#250=DIRECTION('center_axis',(1.,0.,0.));
#251=DIRECTION('ref_axis',(0.,0.,-1.));
#252=DIRECTION('center_axis',(1.,0.,0.));
#253=DIRECTION('ref_axis',(0.,1.,0.));
#254=DIRECTION('center_axis',(1.,0.,0.));
#255=DIRECTION('ref_axis',(0.,0.,-1.));
#256=DIRECTION('',(-0.707106781186544,0.707106781186551,8.65956056235497E-17));
#257=DIRECTION('center_axis',(1.,0.,0.));
#258=DIRECTION('ref_axis',(0.,1.,0.));
#259=DIRECTION('center_axis',(1.,0.,0.));
#260=DIRECTION('ref_axis',(0.,0.,-1.));
#261=DIRECTION('',(-1.,0.,0.));
#262=DIRECTION('center_axis',(-1.,0.,0.));
#263=DIRECTION('ref_axis',(0.,0.,1.));
#264=DIRECTION('center_axis',(1.,0.,0.));
#265=DIRECTION('ref_axis',(0.,0.,-1.));
#266=DIRECTION('center_axis',(1.,0.,0.));
#267=DIRECTION('ref_axis',(0.,0.,-1.));
#268=DIRECTION('center_axis',(1.,0.,0.));
#269=DIRECTION('ref_axis',(0.,0.,-1.));
#270=DIRECTION('center_axis',(1.,0.,0.));
#271=DIRECTION('ref_axis',(0.,0.,-1.));
#272=DIRECTION('center_axis',(0.,-1.,-1.22464679914735E-16));
#273=DIRECTION('ref_axis',(0.,-1.22464679914735E-16,1.));
#274=DIRECTION('center_axis',(1.,0.,0.));
#275=DIRECTION('ref_axis',(0.,1.,0.));
#276=DIRECTION('center_axis',(1.,0.,0.));
#277=DIRECTION('ref_axis',(0.,0.,-1.));
#278=DIRECTION('',(-1.,0.,0.));
#279=DIRECTION('center_axis',(1.,0.,0.));
#280=DIRECTION('ref_axis',(0.,0.,-1.));
#281=DIRECTION('center_axis',(1.,0.,0.));
#282=DIRECTION('ref_axis',(0.,0.,-1.));
#283=DIRECTION('center_axis',(1.,0.,0.));
#284=DIRECTION('ref_axis',(0.,0.,-1.));
#285=DIRECTION('center_axis',(1.,0.,0.));
#286=DIRECTION('ref_axis',(0.,0.,-1.));
#287=DIRECTION('center_axis',(0.,-1.,-1.22464679914735E-16));
#288=DIRECTION('ref_axis',(0.,-1.22464679914735E-16,1.));
#289=DIRECTION('center_axis',(-1.,0.,0.));
#290=DIRECTION('ref_axis',(0.,1.,0.));
#291=DIRECTION('center_axis',(1.,0.,0.));
#292=DIRECTION('ref_axis',(0.,0.,-1.));
#293=DIRECTION('',(-0.342020143325667,-0.939692620785909,-1.15079156022785E-16));
#294=DIRECTION('center_axis',(1.,0.,0.));
#295=DIRECTION('ref_axis',(0.,0.,-1.));
#296=DIRECTION('center_axis',(-1.,0.,0.));
#297=DIRECTION('ref_axis',(0.,0.,1.));
#298=CARTESIAN_POINT('',(0.,0.,0.));
#299=CARTESIAN_POINT('Origin',(-33.25,0.,0.));
#300=CARTESIAN_POINT('',(-30.25,-27.9641016151378,-3.42461475340098E-15));
#301=CARTESIAN_POINT('Origin',(-30.25,0.,0.));
#302=CARTESIAN_POINT('',(-36.25,-24.5,-3.00038465791102E-15));
#303=CARTESIAN_POINT('',(-33.25,-26.2320508075689,-3.212499705656E-15));
#304=CARTESIAN_POINT('Origin',(-36.25,0.,0.));
#305=CARTESIAN_POINT('Origin',(-30.25,30.,0.));
#306=CARTESIAN_POINT('',(-30.25,-30.,-3.67394039744206E-15));
#307=CARTESIAN_POINT('Origin',(-30.25,0.,0.));
#308=CARTESIAN_POINT('Origin',(-26.25,0.,0.));
#309=CARTESIAN_POINT('',(-22.25,-30.,-3.67394039744206E-15));
#310=CARTESIAN_POINT('Origin',(-22.25,0.,0.));
#311=CARTESIAN_POINT('',(-26.25,-30.,-3.67394039744206E-15));
#312=CARTESIAN_POINT('Origin',(-22.25,35.,0.));
#313=CARTESIAN_POINT('',(-22.25,-35.,-4.28626379701574E-15));
#314=CARTESIAN_POINT('Origin',(-22.25,0.,0.));
#315=CARTESIAN_POINT('Origin',(-22.,0.,0.));
#316=CARTESIAN_POINT('',(-21.75,-35.5,-4.3474961369731E-15));
#317=CARTESIAN_POINT('Origin',(-21.75,0.,0.));
#318=CARTESIAN_POINT('',(-22.,-35.25,-4.31687996699442E-15));
#319=CARTESIAN_POINT('Origin',(-11.75,0.,0.));
#320=CARTESIAN_POINT('',(-1.75,-35.5,-4.3474961369731E-15));
#321=CARTESIAN_POINT('Origin',(-1.75,0.,0.));
#322=CARTESIAN_POINT('',(-11.75,-35.5,-4.3474961369731E-15));
#323=CARTESIAN_POINT('Origin',(-1.75,50.85,0.));
#324=CARTESIAN_POINT('',(-1.75,-6.22732897366429E-15,50.85));
#325=CARTESIAN_POINT('Origin',(-1.75,0.,0.));
#326=CARTESIAN_POINT('Origin',(1.25,0.,0.));
#327=CARTESIAN_POINT('',(1.25,-53.85,-6.5947230134085E-15));
#328=CARTESIAN_POINT('',(1.25,-6.5947230134085E-15,53.85));
#329=CARTESIAN_POINT('Origin',(1.25,0.,0.));
#330=CARTESIAN_POINT('Origin',(1.25,0.,0.));
#331=CARTESIAN_POINT('Origin',(1.25,-6.22732897366429E-15,50.85));
#332=CARTESIAN_POINT('Origin',(11.7797217975679,0.,0.));
#333=CARTESIAN_POINT('',(22.3094435951359,-53.85,-6.5947230134085E-15));
#334=CARTESIAN_POINT('',(22.3094435951359,-6.5947230134085E-15,53.85));
#335=CARTESIAN_POINT('Origin',(22.3094435951359,0.,0.));
#336=CARTESIAN_POINT('',(11.7797217975679,-53.85,-6.5947230134085E-15));
#337=CARTESIAN_POINT('Origin',(22.3094435951359,0.,0.));
#338=CARTESIAN_POINT('Origin',(22.3094435951359,0.,0.));
#339=CARTESIAN_POINT('',(27.0079066990654,-50.5601007166283,-6.19182655071867E-15));
#340=CARTESIAN_POINT('',(27.0079066990654,-6.19182655071867E-15,50.5601007166283));
#341=CARTESIAN_POINT('Origin',(27.0079066990654,0.,0.));
#342=CARTESIAN_POINT('Origin',(27.0079066990654,0.,0.));
#343=CARTESIAN_POINT('Origin',(22.3094435951359,-5.98239961383482E-15,48.85));
#344=CARTESIAN_POINT('Origin',(28.1289533495327,0.,0.));
#345=CARTESIAN_POINT('',(29.25,-44.4,-5.43743178821425E-15));
#346=CARTESIAN_POINT('Origin',(29.25,0.,0.));
#347=CARTESIAN_POINT('',(28.1289533495327,-47.4800503583142,-5.81462916946646E-15));
#348=CARTESIAN_POINT('Origin',(29.25,0.,0.));
#349=CARTESIAN_POINT('Origin',(-36.25,24.5,0.));
#350=UNCERTAINTY_MEASURE_WITH_UNIT(LENGTH_MEASURE(0.01),#354,
'DISTANCE_ACCURACY_VALUE',
'Maximum model space distance between geometric entities at asserted c
onnectivities');
#351=UNCERTAINTY_MEASURE_WITH_UNIT(LENGTH_MEASURE(0.01),#354,
'DISTANCE_ACCURACY_VALUE',
'Maximum model space distance between geometric entities at asserted c
onnectivities');
#352=(
GEOMETRIC_REPRESENTATION_CONTEXT(3)
GLOBAL_UNCERTAINTY_ASSIGNED_CONTEXT((#350))
GLOBAL_UNIT_ASSIGNED_CONTEXT((#354,#356,#357))
REPRESENTATION_CONTEXT('','3D')
);
#353=(
GEOMETRIC_REPRESENTATION_CONTEXT(3)
GLOBAL_UNCERTAINTY_ASSIGNED_CONTEXT((#351))
GLOBAL_UNIT_ASSIGNED_CONTEXT((#354,#356,#357))
REPRESENTATION_CONTEXT('','3D')
);
#354=(
LENGTH_UNIT()
NAMED_UNIT(*)
SI_UNIT(.MILLI.,.METRE.)
);
#355=(
LENGTH_UNIT()
NAMED_UNIT(*)
SI_UNIT($,.METRE.)
);
#356=(
NAMED_UNIT(*)
PLANE_ANGLE_UNIT()
SI_UNIT($,.RADIAN.)
);
#357=(
NAMED_UNIT(*)
SI_UNIT($,.STERADIAN.)
SOLID_ANGLE_UNIT()
);
#358=SHAPE_DEFINITION_REPRESENTATION(#359,#360);
#359=PRODUCT_DEFINITION_SHAPE('',$,#362);
#360=SHAPE_REPRESENTATION('',(#199),#352);
#361=PRODUCT_DEFINITION_CONTEXT('part definition',#366,'design');
#362=PRODUCT_DEFINITION('2-2107','2-2107 v2',#363,#361);
#363=PRODUCT_DEFINITION_FORMATION('',$,#368);
#364=PRODUCT_RELATED_PRODUCT_CATEGORY('2-2107 v2','2-2107 v2',(#368));
#365=APPLICATION_PROTOCOL_DEFINITION('international standard',
'automotive_design',2009,#366);
#366=APPLICATION_CONTEXT(
'Core Data for Automotive Mechanical Design Process');
#367=PRODUCT_CONTEXT('part definition',#366,'mechanical');
#368=PRODUCT('2-2107','2-2107 v2',$,(#367));
#369=PRESENTATION_STYLE_ASSIGNMENT((#370));
#370=SURFACE_STYLE_USAGE(.BOTH.,#371);
#371=SURFACE_SIDE_STYLE('',(#372));
#372=SURFACE_STYLE_FILL_AREA(#373);
#373=FILL_AREA_STYLE('Steel - Satin',(#374));
#374=FILL_AREA_STYLE_COLOUR('Steel - Satin',#375);
#375=COLOUR_RGB('Steel - Satin',0.627450980392157,0.627450980392157,0.627450980392157);
ENDSEC;
END-ISO-10303-21;
