ISO-10303-21;
HEADER;
/* Generated by software containing ST-Developer
 * from STEP Tools, Inc. (www.steptools.com) 
 */

FILE_DESCRIPTION(
/* description */ (''),
/* implementation_level */ '2;1');

FILE_NAME(
/* name */ '/Users/matt/Desktop/2-2088_EXPORT v2.step',
/* time_stamp */ '2021-01-20T16:36:00+00:00',
/* author */ (''),
/* organization */ (''),
/* preprocessor_version */ 'ST-DEVELOPER v18.1',
/* originating_system */ 'Autodesk Translation Framework v9.7.0.1280',
/* authorisation */ '');

FILE_SCHEMA (('AUTOMOTIVE_DESIGN { 1 0 10303 214 3 1 1 }'));
ENDSEC;

DATA;
#10=MECHANICAL_DESIGN_GEOMETRIC_PRESENTATION_REPRESENTATION('',(#17),#367);
#11=ITEM_DEFINED_TRANSFORMATION($,$,#204,#235);
#12=(
REPRESENTATION_RELATIONSHIP($,$,#378,#377)
REPRESENTATION_RELATIONSHIP_WITH_TRANSFORMATION(#11)
SHAPE_REPRESENTATION_RELATIONSHIP()
);
#13=CONTEXT_DEPENDENT_SHAPE_REPRESENTATION(#12,#376);
#14=NEXT_ASSEMBLY_USAGE_OCCURRENCE('EBL-2-2088:1','EBL-2-2088:1',
'EBL-2-2088:1',#380,#381,'EBL-2-2088:1');
#15=SHAPE_REPRESENTATION_RELATIONSHIP('SRR','None',#378,#16);
#16=ADVANCED_BREP_SHAPE_REPRESENTATION('',(#18),#366);
#17=STYLED_ITEM('',(#391),#18);
#18=MANIFOLD_SOLID_BREP('Body1',#190);
#19=TOROIDAL_SURFACE('',#224,40.2,4.);
#20=TOROIDAL_SURFACE('',#231,42.2,2.);
#21=FACE_BOUND('',#48,.T.);
#22=FACE_BOUND('',#51,.T.);
#23=FACE_BOUND('',#60,.T.);
#24=PLANE('',#210);
#25=PLANE('',#214);
#26=PLANE('',#218);
#27=PLANE('',#219);
#28=PLANE('',#234);
#29=CONICAL_SURFACE('',#208,29.,0.785398163397448);
#30=CONICAL_SURFACE('',#216,19.,0.444419209901099);
#31=CONICAL_SURFACE('',#221,38.0340402866513,1.22173047639603);
#32=FACE_OUTER_BOUND('',#45,.T.);
#33=FACE_OUTER_BOUND('',#46,.T.);
#34=FACE_OUTER_BOUND('',#47,.T.);
#35=FACE_OUTER_BOUND('',#49,.T.);
#36=FACE_OUTER_BOUND('',#50,.T.);
#37=FACE_OUTER_BOUND('',#52,.T.);
#38=FACE_OUTER_BOUND('',#53,.T.);
#39=FACE_OUTER_BOUND('',#54,.T.);
#40=FACE_OUTER_BOUND('',#55,.T.);
#41=FACE_OUTER_BOUND('',#56,.T.);
#42=FACE_OUTER_BOUND('',#57,.T.);
#43=FACE_OUTER_BOUND('',#58,.T.);
#44=FACE_OUTER_BOUND('',#59,.T.);
#45=EDGE_LOOP('',(#128,#129,#130,#131));
#46=EDGE_LOOP('',(#132,#133,#134,#135));
#47=EDGE_LOOP('',(#136));
#48=EDGE_LOOP('',(#137));
#49=EDGE_LOOP('',(#138,#139,#140,#141));
#50=EDGE_LOOP('',(#142));
#51=EDGE_LOOP('',(#143));
#52=EDGE_LOOP('',(#144,#145,#146,#147));
#53=EDGE_LOOP('',(#148));
#54=EDGE_LOOP('',(#149));
#55=EDGE_LOOP('',(#150,#151,#152,#153,#154));
#56=EDGE_LOOP('',(#155,#156,#157,#158,#159,#160));
#57=EDGE_LOOP('',(#161,#162,#163,#164,#165,#166));
#58=EDGE_LOOP('',(#167,#168,#169,#170,#171));
#59=EDGE_LOOP('',(#172));
#60=EDGE_LOOP('',(#173));
#61=LINE('',#314,#67);
#62=LINE('',#319,#68);
#63=LINE('',#326,#69);
#64=LINE('',#333,#70);
#65=LINE('',#343,#71);
#66=LINE('',#355,#72);
#67=VECTOR('',#244,29.5);
#68=VECTOR('',#251,29.);
#69=VECTOR('',#260,22.5);
#70=VECTOR('',#269,19.);
#71=VECTOR('',#282,38.0340402866513);
#72=VECTOR('',#297,44.2);
#73=CIRCLE('',#206,29.5);
#74=CIRCLE('',#207,29.5);
#75=CIRCLE('',#209,28.5);
#76=CIRCLE('',#211,22.5);
#77=CIRCLE('',#213,22.5);
#78=CIRCLE('',#215,20.5);
#79=CIRCLE('',#217,17.5);
#80=CIRCLE('',#220,34.5);
#81=CIRCLE('',#222,41.5680805733027);
#82=CIRCLE('',#223,41.5680805733027);
#83=CIRCLE('',#225,44.2);
#84=CIRCLE('',#226,4.);
#85=CIRCLE('',#227,44.2);
#86=CIRCLE('',#229,44.2);
#87=CIRCLE('',#230,44.2);
#88=CIRCLE('',#232,42.2);
#89=CIRCLE('',#233,2.);
#90=VERTEX_POINT('',#311);
#91=VERTEX_POINT('',#313);
#92=VERTEX_POINT('',#317);
#93=VERTEX_POINT('',#321);
#94=VERTEX_POINT('',#324);
#95=VERTEX_POINT('',#328);
#96=VERTEX_POINT('',#331);
#97=VERTEX_POINT('',#336);
#98=VERTEX_POINT('',#339);
#99=VERTEX_POINT('',#340);
#100=VERTEX_POINT('',#345);
#101=VERTEX_POINT('',#346);
#102=VERTEX_POINT('',#351);
#103=VERTEX_POINT('',#352);
#104=VERTEX_POINT('',#357);
#105=EDGE_CURVE('',#90,#90,#73,.T.);
#106=EDGE_CURVE('',#90,#91,#61,.T.);
#107=EDGE_CURVE('',#91,#91,#74,.T.);
#108=EDGE_CURVE('',#92,#92,#75,.T.);
#109=EDGE_CURVE('',#92,#90,#62,.T.);
#110=EDGE_CURVE('',#93,#93,#76,.T.);
#111=EDGE_CURVE('',#94,#94,#77,.T.);
#112=EDGE_CURVE('',#94,#93,#63,.T.);
#113=EDGE_CURVE('',#95,#95,#78,.T.);
#114=EDGE_CURVE('',#96,#96,#79,.T.);
#115=EDGE_CURVE('',#96,#95,#64,.T.);
#116=EDGE_CURVE('',#97,#97,#80,.T.);
#117=EDGE_CURVE('',#98,#99,#81,.T.);
#118=EDGE_CURVE('',#99,#98,#82,.T.);
#119=EDGE_CURVE('',#99,#97,#65,.T.);
#120=EDGE_CURVE('',#100,#101,#83,.T.);
#121=EDGE_CURVE('',#100,#98,#84,.T.);
#122=EDGE_CURVE('',#101,#100,#85,.T.);
#123=EDGE_CURVE('',#102,#103,#86,.T.);
#124=EDGE_CURVE('',#103,#102,#87,.T.);
#125=EDGE_CURVE('',#103,#101,#66,.T.);
#126=EDGE_CURVE('',#104,#104,#88,.T.);
#127=EDGE_CURVE('',#104,#102,#89,.T.);
#128=ORIENTED_EDGE('',*,*,#105,.F.);
#129=ORIENTED_EDGE('',*,*,#106,.T.);
#130=ORIENTED_EDGE('',*,*,#107,.T.);
#131=ORIENTED_EDGE('',*,*,#106,.F.);
#132=ORIENTED_EDGE('',*,*,#108,.F.);
#133=ORIENTED_EDGE('',*,*,#109,.T.);
#134=ORIENTED_EDGE('',*,*,#105,.T.);
#135=ORIENTED_EDGE('',*,*,#109,.F.);
#136=ORIENTED_EDGE('',*,*,#108,.T.);
#137=ORIENTED_EDGE('',*,*,#110,.F.);
#138=ORIENTED_EDGE('',*,*,#111,.F.);
#139=ORIENTED_EDGE('',*,*,#112,.T.);
#140=ORIENTED_EDGE('',*,*,#110,.T.);
#141=ORIENTED_EDGE('',*,*,#112,.F.);
#142=ORIENTED_EDGE('',*,*,#111,.T.);
#143=ORIENTED_EDGE('',*,*,#113,.F.);
#144=ORIENTED_EDGE('',*,*,#114,.F.);
#145=ORIENTED_EDGE('',*,*,#115,.T.);
#146=ORIENTED_EDGE('',*,*,#113,.T.);
#147=ORIENTED_EDGE('',*,*,#115,.F.);
#148=ORIENTED_EDGE('',*,*,#114,.T.);
#149=ORIENTED_EDGE('',*,*,#116,.F.);
#150=ORIENTED_EDGE('',*,*,#117,.F.);
#151=ORIENTED_EDGE('',*,*,#118,.F.);
#152=ORIENTED_EDGE('',*,*,#119,.T.);
#153=ORIENTED_EDGE('',*,*,#116,.T.);
#154=ORIENTED_EDGE('',*,*,#119,.F.);
#155=ORIENTED_EDGE('',*,*,#120,.F.);
#156=ORIENTED_EDGE('',*,*,#121,.T.);
#157=ORIENTED_EDGE('',*,*,#117,.T.);
#158=ORIENTED_EDGE('',*,*,#118,.T.);
#159=ORIENTED_EDGE('',*,*,#121,.F.);
#160=ORIENTED_EDGE('',*,*,#122,.F.);
#161=ORIENTED_EDGE('',*,*,#123,.F.);
#162=ORIENTED_EDGE('',*,*,#124,.F.);
#163=ORIENTED_EDGE('',*,*,#125,.T.);
#164=ORIENTED_EDGE('',*,*,#122,.T.);
#165=ORIENTED_EDGE('',*,*,#120,.T.);
#166=ORIENTED_EDGE('',*,*,#125,.F.);
#167=ORIENTED_EDGE('',*,*,#126,.F.);
#168=ORIENTED_EDGE('',*,*,#127,.T.);
#169=ORIENTED_EDGE('',*,*,#123,.T.);
#170=ORIENTED_EDGE('',*,*,#124,.T.);
#171=ORIENTED_EDGE('',*,*,#127,.F.);
#172=ORIENTED_EDGE('',*,*,#126,.T.);
#173=ORIENTED_EDGE('',*,*,#107,.F.);
#174=CYLINDRICAL_SURFACE('',#205,29.5);
#175=CYLINDRICAL_SURFACE('',#212,22.5);
#176=CYLINDRICAL_SURFACE('',#228,44.2);
#177=ADVANCED_FACE('',(#32),#174,.T.);
#178=ADVANCED_FACE('',(#33),#29,.T.);
#179=ADVANCED_FACE('',(#34,#21),#24,.T.);
#180=ADVANCED_FACE('',(#35),#175,.T.);
#181=ADVANCED_FACE('',(#36,#22),#25,.T.);
#182=ADVANCED_FACE('',(#37),#30,.T.);
#183=ADVANCED_FACE('',(#38),#26,.T.);
#184=ADVANCED_FACE('',(#39),#27,.T.);
#185=ADVANCED_FACE('',(#40),#31,.T.);
#186=ADVANCED_FACE('',(#41),#19,.T.);
#187=ADVANCED_FACE('',(#42),#176,.T.);
#188=ADVANCED_FACE('',(#43),#20,.T.);
#189=ADVANCED_FACE('',(#44,#23),#28,.T.);
#190=CLOSED_SHELL('',(#177,#178,#179,#180,#181,#182,#183,#184,#185,#186,
#187,#188,#189));
#191=DERIVED_UNIT_ELEMENT(#193,1.);
#192=DERIVED_UNIT_ELEMENT(#369,-3.);
#193=(
MASS_UNIT()
NAMED_UNIT(*)
SI_UNIT(.KILO.,.GRAM.)
);
#194=DERIVED_UNIT((#191,#192));
#195=MEASURE_REPRESENTATION_ITEM('density measure',
POSITIVE_RATIO_MEASURE(7850.),#194);
#196=PROPERTY_DEFINITION_REPRESENTATION(#201,#198);
#197=PROPERTY_DEFINITION_REPRESENTATION(#202,#199);
#198=REPRESENTATION('material name',(#200),#366);
#199=REPRESENTATION('density',(#195),#366);
#200=DESCRIPTIVE_REPRESENTATION_ITEM('Steel','Steel');
#201=PROPERTY_DEFINITION('material property','material name',#381);
#202=PROPERTY_DEFINITION('material property','density of part',#381);
#203=AXIS2_PLACEMENT_3D('placement',#308,#236,#237);
#204=AXIS2_PLACEMENT_3D('placement',#309,#238,#239);
#205=AXIS2_PLACEMENT_3D('',#310,#240,#241);
#206=AXIS2_PLACEMENT_3D('',#312,#242,#243);
#207=AXIS2_PLACEMENT_3D('',#315,#245,#246);
#208=AXIS2_PLACEMENT_3D('',#316,#247,#248);
#209=AXIS2_PLACEMENT_3D('',#318,#249,#250);
#210=AXIS2_PLACEMENT_3D('',#320,#252,#253);
#211=AXIS2_PLACEMENT_3D('',#322,#254,#255);
#212=AXIS2_PLACEMENT_3D('',#323,#256,#257);
#213=AXIS2_PLACEMENT_3D('',#325,#258,#259);
#214=AXIS2_PLACEMENT_3D('',#327,#261,#262);
#215=AXIS2_PLACEMENT_3D('',#329,#263,#264);
#216=AXIS2_PLACEMENT_3D('',#330,#265,#266);
#217=AXIS2_PLACEMENT_3D('',#332,#267,#268);
#218=AXIS2_PLACEMENT_3D('',#334,#270,#271);
#219=AXIS2_PLACEMENT_3D('',#335,#272,#273);
#220=AXIS2_PLACEMENT_3D('',#337,#274,#275);
#221=AXIS2_PLACEMENT_3D('',#338,#276,#277);
#222=AXIS2_PLACEMENT_3D('',#341,#278,#279);
#223=AXIS2_PLACEMENT_3D('',#342,#280,#281);
#224=AXIS2_PLACEMENT_3D('',#344,#283,#284);
#225=AXIS2_PLACEMENT_3D('',#347,#285,#286);
#226=AXIS2_PLACEMENT_3D('',#348,#287,#288);
#227=AXIS2_PLACEMENT_3D('',#349,#289,#290);
#228=AXIS2_PLACEMENT_3D('',#350,#291,#292);
#229=AXIS2_PLACEMENT_3D('',#353,#293,#294);
#230=AXIS2_PLACEMENT_3D('',#354,#295,#296);
#231=AXIS2_PLACEMENT_3D('',#356,#298,#299);
#232=AXIS2_PLACEMENT_3D('',#358,#300,#301);
#233=AXIS2_PLACEMENT_3D('',#359,#302,#303);
#234=AXIS2_PLACEMENT_3D('',#360,#304,#305);
#235=AXIS2_PLACEMENT_3D('',#361,#306,#307);
#236=DIRECTION('axis',(0.,0.,1.));
#237=DIRECTION('refdir',(1.,0.,0.));
#238=DIRECTION('axis',(0.,0.,1.));
#239=DIRECTION('refdir',(1.,0.,0.));
#240=DIRECTION('center_axis',(-1.,0.,0.));
#241=DIRECTION('ref_axis',(0.,-1.,0.));
#242=DIRECTION('center_axis',(-1.,0.,0.));
#243=DIRECTION('ref_axis',(0.,0.,1.));
#244=DIRECTION('',(1.,0.,0.));
#245=DIRECTION('center_axis',(-1.,0.,0.));
#246=DIRECTION('ref_axis',(0.,0.,1.));
#247=DIRECTION('center_axis',(1.,0.,0.));
#248=DIRECTION('ref_axis',(0.,-1.,0.));
#249=DIRECTION('center_axis',(-1.,0.,0.));
#250=DIRECTION('ref_axis',(0.,0.,1.));
#251=DIRECTION('',(0.707106781186547,0.707106781186548,-8.65956056235494E-17));
#252=DIRECTION('center_axis',(-1.,0.,0.));
#253=DIRECTION('ref_axis',(0.,0.,1.));
#254=DIRECTION('center_axis',(-1.,0.,0.));
#255=DIRECTION('ref_axis',(0.,0.,1.));
#256=DIRECTION('center_axis',(-1.,0.,0.));
#257=DIRECTION('ref_axis',(0.,-1.,0.));
#258=DIRECTION('center_axis',(-1.,0.,0.));
#259=DIRECTION('ref_axis',(0.,0.,1.));
#260=DIRECTION('',(1.,0.,0.));
#261=DIRECTION('center_axis',(-1.,0.,0.));
#262=DIRECTION('ref_axis',(0.,0.,1.));
#263=DIRECTION('center_axis',(-1.,0.,0.));
#264=DIRECTION('ref_axis',(0.,0.,1.));
#265=DIRECTION('center_axis',(1.,0.,0.));
#266=DIRECTION('ref_axis',(0.,-1.,0.));
#267=DIRECTION('center_axis',(-1.,0.,0.));
#268=DIRECTION('ref_axis',(0.,0.,1.));
#269=DIRECTION('',(0.90286051882393,0.429933580392348,-5.2651678307345E-17));
#270=DIRECTION('center_axis',(-1.,0.,0.));
#271=DIRECTION('ref_axis',(0.,0.,1.));
#272=DIRECTION('center_axis',(1.,0.,0.));
#273=DIRECTION('ref_axis',(0.,0.,-1.));
#274=DIRECTION('center_axis',(-1.,0.,0.));
#275=DIRECTION('ref_axis',(0.,0.,1.));
#276=DIRECTION('center_axis',(-1.,0.,0.));
#277=DIRECTION('ref_axis',(0.,-1.,0.));
#278=DIRECTION('center_axis',(-1.,0.,0.));
#279=DIRECTION('ref_axis',(0.,0.,1.));
#280=DIRECTION('center_axis',(-1.,0.,0.));
#281=DIRECTION('ref_axis',(0.,0.,1.));
#282=DIRECTION('',(0.34202014332567,-0.939692620785908,1.15079156022785E-16));
#283=DIRECTION('center_axis',(-1.,0.,0.));
#284=DIRECTION('ref_axis',(0.,0.,1.));
#285=DIRECTION('center_axis',(-1.,0.,0.));
#286=DIRECTION('ref_axis',(0.,0.,1.));
#287=DIRECTION('center_axis',(0.,-1.,1.22464679914735E-16));
#288=DIRECTION('ref_axis',(0.,-1.22464679914735E-16,-1.));
#289=DIRECTION('center_axis',(-1.,0.,0.));
#290=DIRECTION('ref_axis',(0.,0.,1.));
#291=DIRECTION('center_axis',(-1.,0.,0.));
#292=DIRECTION('ref_axis',(0.,-1.,0.));
#293=DIRECTION('center_axis',(-1.,0.,0.));
#294=DIRECTION('ref_axis',(0.,0.,1.));
#295=DIRECTION('center_axis',(-1.,0.,0.));
#296=DIRECTION('ref_axis',(0.,0.,1.));
#297=DIRECTION('',(1.,0.,0.));
#298=DIRECTION('center_axis',(-1.,0.,0.));
#299=DIRECTION('ref_axis',(0.,0.,1.));
#300=DIRECTION('center_axis',(-1.,0.,0.));
#301=DIRECTION('ref_axis',(0.,0.,1.));
#302=DIRECTION('center_axis',(0.,-1.,1.22464679914735E-16));
#303=DIRECTION('ref_axis',(0.,-1.22464679914735E-16,-1.));
#304=DIRECTION('center_axis',(-1.,0.,0.));
#305=DIRECTION('ref_axis',(0.,0.,1.));
#306=DIRECTION('',(0.,0.,1.));
#307=DIRECTION('',(1.,0.,0.));
#308=CARTESIAN_POINT('',(0.,0.,0.));
#309=CARTESIAN_POINT('',(0.,0.,0.));
#310=CARTESIAN_POINT('Origin',(-8.00000000000001,0.,0.));
#311=CARTESIAN_POINT('',(-13.,29.5,-3.61270805748469E-15));
#312=CARTESIAN_POINT('Origin',(-13.,0.,0.));
#313=CARTESIAN_POINT('',(-3.00000000000001,29.5,-3.61270805748469E-15));
#314=CARTESIAN_POINT('',(-8.00000000000001,29.5,-3.61270805748469E-15));
#315=CARTESIAN_POINT('Origin',(-3.00000000000001,0.,0.));
#316=CARTESIAN_POINT('Origin',(-13.5,0.,0.));
#317=CARTESIAN_POINT('',(-14.,28.5,-3.49024337756996E-15));
#318=CARTESIAN_POINT('Origin',(-14.,0.,0.));
#319=CARTESIAN_POINT('',(-13.5,29.,-3.55147571752732E-15));
#320=CARTESIAN_POINT('Origin',(-14.,-22.5,0.));
#321=CARTESIAN_POINT('',(-14.,22.5,-2.75545529808154E-15));
#322=CARTESIAN_POINT('Origin',(-14.,0.,0.));
#323=CARTESIAN_POINT('Origin',(-17.35,0.,0.));
#324=CARTESIAN_POINT('',(-20.7,22.5,-2.75545529808154E-15));
#325=CARTESIAN_POINT('Origin',(-20.7,0.,0.));
#326=CARTESIAN_POINT('',(-17.35,22.5,-2.75545529808154E-15));
#327=CARTESIAN_POINT('Origin',(-20.7,-20.5,0.));
#328=CARTESIAN_POINT('',(-20.7,20.5,-2.51052593825207E-15));
#329=CARTESIAN_POINT('Origin',(-20.7,0.,0.));
#330=CARTESIAN_POINT('Origin',(-23.85,0.,0.));
#331=CARTESIAN_POINT('',(-27.,17.5,-2.14313189850787E-15));
#332=CARTESIAN_POINT('Origin',(-27.,0.,0.));
#333=CARTESIAN_POINT('',(-23.85,19.,-2.32682891837997E-15));
#334=CARTESIAN_POINT('Origin',(-27.,0.,0.));
#335=CARTESIAN_POINT('Origin',(27.,-34.5,0.));
#336=CARTESIAN_POINT('',(27.,34.5,-4.22503145705837E-15));
#337=CARTESIAN_POINT('Origin',(27.,0.,0.));
#338=CARTESIAN_POINT('Origin',(25.7137145289613,0.,0.));
#339=CARTESIAN_POINT('',(24.4274290579226,-5.09062168207944E-15,-41.5680805733027));
#340=CARTESIAN_POINT('',(24.4274290579226,41.5680805733027,-5.09062168207944E-15));
#341=CARTESIAN_POINT('Origin',(24.4274290579226,0.,0.));
#342=CARTESIAN_POINT('Origin',(24.4274290579226,0.,0.));
#343=CARTESIAN_POINT('',(25.7137145289613,38.0340402866513,-4.6578265695689E-15));
#344=CARTESIAN_POINT('Origin',(20.668658574779,0.,0.));
#345=CARTESIAN_POINT('',(20.668658574779,-5.4129388522313E-15,-44.2));
#346=CARTESIAN_POINT('',(20.668658574779,44.2,-5.4129388522313E-15));
#347=CARTESIAN_POINT('Origin',(20.668658574779,0.,0.));
#348=CARTESIAN_POINT('Origin',(20.668658574779,-4.92308013257236E-15,-40.2));
#349=CARTESIAN_POINT('Origin',(20.668658574779,0.,0.));
#350=CARTESIAN_POINT('Origin',(9.83432928738949,0.,0.));
#351=CARTESIAN_POINT('',(-1.00000000000001,-5.4129388522313E-15,-44.2));
#352=CARTESIAN_POINT('',(-1.00000000000001,44.2,-5.4129388522313E-15));
#353=CARTESIAN_POINT('Origin',(-1.00000000000001,0.,0.));
#354=CARTESIAN_POINT('Origin',(-1.00000000000001,0.,0.));
#355=CARTESIAN_POINT('',(9.83432928738949,44.2,-5.4129388522313E-15));
#356=CARTESIAN_POINT('Origin',(-1.00000000000001,0.,0.));
#357=CARTESIAN_POINT('',(-3.00000000000001,-5.16800949240183E-15,-42.2));
#358=CARTESIAN_POINT('Origin',(-3.00000000000001,0.,0.));
#359=CARTESIAN_POINT('Origin',(-1.00000000000001,-5.16800949240183E-15,
-42.2));
#360=CARTESIAN_POINT('Origin',(-3.00000000000001,-29.5,0.));
#361=CARTESIAN_POINT('',(0.,0.,0.));
#362=UNCERTAINTY_MEASURE_WITH_UNIT(LENGTH_MEASURE(0.01),#368,
'DISTANCE_ACCURACY_VALUE',
'Maximum model space distance between geometric entities at asserted c
onnectivities');
#363=UNCERTAINTY_MEASURE_WITH_UNIT(LENGTH_MEASURE(0.01),#368,
'DISTANCE_ACCURACY_VALUE',
'Maximum model space distance between geometric entities at asserted c
onnectivities');
#364=UNCERTAINTY_MEASURE_WITH_UNIT(LENGTH_MEASURE(0.01),#368,
'DISTANCE_ACCURACY_VALUE',
'Maximum model space distance between geometric entities at asserted c
onnectivities');
#365=(
GEOMETRIC_REPRESENTATION_CONTEXT(3)
GLOBAL_UNCERTAINTY_ASSIGNED_CONTEXT((#362))
GLOBAL_UNIT_ASSIGNED_CONTEXT((#368,#370,#371))
REPRESENTATION_CONTEXT('','3D')
);
#366=(
GEOMETRIC_REPRESENTATION_CONTEXT(3)
GLOBAL_UNCERTAINTY_ASSIGNED_CONTEXT((#363))
GLOBAL_UNIT_ASSIGNED_CONTEXT((#368,#370,#371))
REPRESENTATION_CONTEXT('','3D')
);
#367=(
GEOMETRIC_REPRESENTATION_CONTEXT(3)
GLOBAL_UNCERTAINTY_ASSIGNED_CONTEXT((#364))
GLOBAL_UNIT_ASSIGNED_CONTEXT((#368,#370,#371))
REPRESENTATION_CONTEXT('','3D')
);
#368=(
LENGTH_UNIT()
NAMED_UNIT(*)
SI_UNIT(.MILLI.,.METRE.)
);
#369=(
LENGTH_UNIT()
NAMED_UNIT(*)
SI_UNIT($,.METRE.)
);
#370=(
NAMED_UNIT(*)
PLANE_ANGLE_UNIT()
SI_UNIT($,.RADIAN.)
);
#371=(
NAMED_UNIT(*)
SI_UNIT($,.STERADIAN.)
SOLID_ANGLE_UNIT()
);
#372=SHAPE_DEFINITION_REPRESENTATION(#374,#377);
#373=SHAPE_DEFINITION_REPRESENTATION(#375,#378);
#374=PRODUCT_DEFINITION_SHAPE('',$,#380);
#375=PRODUCT_DEFINITION_SHAPE('',$,#381);
#376=PRODUCT_DEFINITION_SHAPE($,$,#14);
#377=SHAPE_REPRESENTATION('',(#203,#235),#365);
#378=SHAPE_REPRESENTATION('',(#204),#366);
#379=PRODUCT_DEFINITION_CONTEXT('part definition',#387,'design');
#380=PRODUCT_DEFINITION('2-2088_EXPORT','2-2088_EXPORT v2',#382,#379);
#381=PRODUCT_DEFINITION('EBL-2-2088','EBL-2-2088',#383,#379);
#382=PRODUCT_DEFINITION_FORMATION('',$,#389);
#383=PRODUCT_DEFINITION_FORMATION('',$,#390);
#384=PRODUCT_RELATED_PRODUCT_CATEGORY('2-2088_EXPORT v2',
'2-2088_EXPORT v2',(#389));
#385=PRODUCT_RELATED_PRODUCT_CATEGORY('EBL-2-2088','EBL-2-2088',(#390));
#386=APPLICATION_PROTOCOL_DEFINITION('international standard',
'automotive_design',2009,#387);
#387=APPLICATION_CONTEXT(
'Core Data for Automotive Mechanical Design Process');
#388=PRODUCT_CONTEXT('part definition',#387,'mechanical');
#389=PRODUCT('2-2088_EXPORT','2-2088_EXPORT v2',$,(#388));
#390=PRODUCT('EBL-2-2088','EBL-2-2088',$,(#388));
#391=PRESENTATION_STYLE_ASSIGNMENT((#392));
#392=SURFACE_STYLE_USAGE(.BOTH.,#393);
#393=SURFACE_SIDE_STYLE('',(#394));
#394=SURFACE_STYLE_FILL_AREA(#395);
#395=FILL_AREA_STYLE('Steel - Satin',(#396));
#396=FILL_AREA_STYLE_COLOUR('Steel - Satin',#397);
#397=COLOUR_RGB('Steel - Satin',0.627450980392157,0.627450980392157,0.627450980392157);
ENDSEC;
END-ISO-10303-21;
