ISO-10303-21;
HEADER;
/* Generated by software containing ST-Developer
 * from STEP Tools, Inc. (www.steptools.com) 
 */

FILE_DESCRIPTION(
/* description */ (''),
/* implementation_level */ '2;1');

FILE_NAME(
/* name */ '2-2077 v3.step',
/* time_stamp */ '2023-05-24T12:50:33+01:00',
/* author */ (''),
/* organization */ (''),
/* preprocessor_version */ 'ST-DEVELOPER v19.2',
/* originating_system */ 'Autodesk Translation Framework v11.17.0.187',

/* authorisation */ '');

FILE_SCHEMA (('AUTOMOTIVE_DESIGN { 1 0 10303 214 3 1 1 }'));
ENDSEC;

DATA;
#10=MECHANICAL_DESIGN_GEOMETRIC_PRESENTATION_REPRESENTATION('',(#13),#353);
#11=SHAPE_REPRESENTATION_RELATIONSHIP('SRR','None',#360,#12);
#12=ADVANCED_BREP_SHAPE_REPRESENTATION('',(#14),#352);
#13=STYLED_ITEM('',(#369),#14);
#14=MANIFOLD_SOLID_BREP('Body1',#186);
#15=TOROIDAL_SURFACE('',#216,36.85,2.);
#16=TOROIDAL_SURFACE('',#223,34.85,4.);
#17=CYLINDRICAL_SURFACE('',#206,20.);
#18=CYLINDRICAL_SURFACE('',#212,26.5);
#19=CYLINDRICAL_SURFACE('',#220,38.85);
#20=FACE_BOUND('',#54,.T.);
#21=FACE_BOUND('',#57,.T.);
#22=FACE_BOUND('',#61,.T.);
#23=LINE('',#305,#29);
#24=LINE('',#312,#30);
#25=LINE('',#319,#31);
#26=LINE('',#323,#32);
#27=LINE('',#337,#33);
#28=LINE('',#348,#34);
#29=VECTOR('',#240,16.5888888888889);
#30=VECTOR('',#249,20.);
#31=VECTOR('',#258,26.25);
#32=VECTOR('',#263,26.5);
#33=VECTOR('',#280,38.85);
#34=VECTOR('',#295,33.4840402866513);
#35=CONICAL_SURFACE('',#202,16.5888888888889,0.507098504392338);
#36=CONICAL_SURFACE('',#210,26.25,0.785398163397451);
#37=CONICAL_SURFACE('',#227,33.4840402866513,1.22173047639603);
#38=FACE_OUTER_BOUND('',#51,.T.);
#39=FACE_OUTER_BOUND('',#52,.T.);
#40=FACE_OUTER_BOUND('',#53,.T.);
#41=FACE_OUTER_BOUND('',#55,.T.);
#42=FACE_OUTER_BOUND('',#56,.T.);
#43=FACE_OUTER_BOUND('',#58,.T.);
#44=FACE_OUTER_BOUND('',#59,.T.);
#45=FACE_OUTER_BOUND('',#60,.T.);
#46=FACE_OUTER_BOUND('',#62,.T.);
#47=FACE_OUTER_BOUND('',#63,.T.);
#48=FACE_OUTER_BOUND('',#64,.T.);
#49=FACE_OUTER_BOUND('',#65,.T.);
#50=FACE_OUTER_BOUND('',#66,.T.);
#51=EDGE_LOOP('',(#122));
#52=EDGE_LOOP('',(#123,#124,#125,#126));
#53=EDGE_LOOP('',(#127));
#54=EDGE_LOOP('',(#128));
#55=EDGE_LOOP('',(#129,#130,#131,#132));
#56=EDGE_LOOP('',(#133));
#57=EDGE_LOOP('',(#134));
#58=EDGE_LOOP('',(#135,#136,#137,#138));
#59=EDGE_LOOP('',(#139,#140,#141,#142));
#60=EDGE_LOOP('',(#143));
#61=EDGE_LOOP('',(#144));
#62=EDGE_LOOP('',(#145,#146,#147,#148,#149));
#63=EDGE_LOOP('',(#150,#151,#152,#153,#154,#155));
#64=EDGE_LOOP('',(#156,#157,#158,#159,#160,#161));
#65=EDGE_LOOP('',(#162,#163,#164,#165,#166));
#66=EDGE_LOOP('',(#167));
#67=CIRCLE('',#201,15.2277777777778);
#68=CIRCLE('',#203,17.95);
#69=CIRCLE('',#205,20.);
#70=CIRCLE('',#207,20.);
#71=CIRCLE('',#209,26.);
#72=CIRCLE('',#211,26.5);
#73=CIRCLE('',#213,26.5);
#74=CIRCLE('',#215,36.85);
#75=CIRCLE('',#217,38.85);
#76=CIRCLE('',#218,38.85);
#77=CIRCLE('',#219,2.);
#78=CIRCLE('',#221,38.85);
#79=CIRCLE('',#222,38.85);
#80=CIRCLE('',#224,36.2180805733027);
#81=CIRCLE('',#225,36.2180805733027);
#82=CIRCLE('',#226,4.);
#83=CIRCLE('',#228,30.75);
#84=VERTEX_POINT('',#300);
#85=VERTEX_POINT('',#303);
#86=VERTEX_POINT('',#307);
#87=VERTEX_POINT('',#310);
#88=VERTEX_POINT('',#314);
#89=VERTEX_POINT('',#317);
#90=VERTEX_POINT('',#321);
#91=VERTEX_POINT('',#325);
#92=VERTEX_POINT('',#328);
#93=VERTEX_POINT('',#329);
#94=VERTEX_POINT('',#334);
#95=VERTEX_POINT('',#335);
#96=VERTEX_POINT('',#340);
#97=VERTEX_POINT('',#341);
#98=VERTEX_POINT('',#346);
#99=EDGE_CURVE('',#84,#84,#67,.T.);
#100=EDGE_CURVE('',#85,#85,#68,.T.);
#101=EDGE_CURVE('',#85,#84,#23,.T.);
#102=EDGE_CURVE('',#86,#86,#69,.T.);
#103=EDGE_CURVE('',#87,#87,#70,.T.);
#104=EDGE_CURVE('',#87,#86,#24,.T.);
#105=EDGE_CURVE('',#88,#88,#71,.T.);
#106=EDGE_CURVE('',#89,#89,#72,.T.);
#107=EDGE_CURVE('',#89,#88,#25,.T.);
#108=EDGE_CURVE('',#90,#90,#73,.T.);
#109=EDGE_CURVE('',#90,#89,#26,.T.);
#110=EDGE_CURVE('',#91,#91,#74,.T.);
#111=EDGE_CURVE('',#92,#93,#75,.T.);
#112=EDGE_CURVE('',#93,#92,#76,.T.);
#113=EDGE_CURVE('',#93,#91,#77,.T.);
#114=EDGE_CURVE('',#94,#95,#78,.T.);
#115=EDGE_CURVE('',#94,#92,#27,.T.);
#116=EDGE_CURVE('',#95,#94,#79,.T.);
#117=EDGE_CURVE('',#96,#97,#80,.T.);
#118=EDGE_CURVE('',#97,#96,#81,.T.);
#119=EDGE_CURVE('',#97,#95,#82,.T.);
#120=EDGE_CURVE('',#98,#98,#83,.T.);
#121=EDGE_CURVE('',#98,#96,#28,.T.);
#122=ORIENTED_EDGE('',*,*,#99,.F.);
#123=ORIENTED_EDGE('',*,*,#100,.F.);
#124=ORIENTED_EDGE('',*,*,#101,.T.);
#125=ORIENTED_EDGE('',*,*,#99,.T.);
#126=ORIENTED_EDGE('',*,*,#101,.F.);
#127=ORIENTED_EDGE('',*,*,#102,.F.);
#128=ORIENTED_EDGE('',*,*,#100,.T.);
#129=ORIENTED_EDGE('',*,*,#103,.F.);
#130=ORIENTED_EDGE('',*,*,#104,.T.);
#131=ORIENTED_EDGE('',*,*,#102,.T.);
#132=ORIENTED_EDGE('',*,*,#104,.F.);
#133=ORIENTED_EDGE('',*,*,#105,.F.);
#134=ORIENTED_EDGE('',*,*,#103,.T.);
#135=ORIENTED_EDGE('',*,*,#106,.F.);
#136=ORIENTED_EDGE('',*,*,#107,.T.);
#137=ORIENTED_EDGE('',*,*,#105,.T.);
#138=ORIENTED_EDGE('',*,*,#107,.F.);
#139=ORIENTED_EDGE('',*,*,#108,.F.);
#140=ORIENTED_EDGE('',*,*,#109,.T.);
#141=ORIENTED_EDGE('',*,*,#106,.T.);
#142=ORIENTED_EDGE('',*,*,#109,.F.);
#143=ORIENTED_EDGE('',*,*,#110,.F.);
#144=ORIENTED_EDGE('',*,*,#108,.T.);
#145=ORIENTED_EDGE('',*,*,#111,.F.);
#146=ORIENTED_EDGE('',*,*,#112,.F.);
#147=ORIENTED_EDGE('',*,*,#113,.T.);
#148=ORIENTED_EDGE('',*,*,#110,.T.);
#149=ORIENTED_EDGE('',*,*,#113,.F.);
#150=ORIENTED_EDGE('',*,*,#114,.F.);
#151=ORIENTED_EDGE('',*,*,#115,.T.);
#152=ORIENTED_EDGE('',*,*,#111,.T.);
#153=ORIENTED_EDGE('',*,*,#112,.T.);
#154=ORIENTED_EDGE('',*,*,#115,.F.);
#155=ORIENTED_EDGE('',*,*,#116,.F.);
#156=ORIENTED_EDGE('',*,*,#117,.F.);
#157=ORIENTED_EDGE('',*,*,#118,.F.);
#158=ORIENTED_EDGE('',*,*,#119,.T.);
#159=ORIENTED_EDGE('',*,*,#116,.T.);
#160=ORIENTED_EDGE('',*,*,#114,.T.);
#161=ORIENTED_EDGE('',*,*,#119,.F.);
#162=ORIENTED_EDGE('',*,*,#120,.F.);
#163=ORIENTED_EDGE('',*,*,#121,.T.);
#164=ORIENTED_EDGE('',*,*,#117,.T.);
#165=ORIENTED_EDGE('',*,*,#118,.T.);
#166=ORIENTED_EDGE('',*,*,#121,.F.);
#167=ORIENTED_EDGE('',*,*,#120,.T.);
#168=PLANE('',#200);
#169=PLANE('',#204);
#170=PLANE('',#208);
#171=PLANE('',#214);
#172=PLANE('',#229);
#173=ADVANCED_FACE('',(#38),#168,.T.);
#174=ADVANCED_FACE('',(#39),#35,.T.);
#175=ADVANCED_FACE('',(#40,#20),#169,.T.);
#176=ADVANCED_FACE('',(#41),#17,.T.);
#177=ADVANCED_FACE('',(#42,#21),#170,.T.);
#178=ADVANCED_FACE('',(#43),#36,.T.);
#179=ADVANCED_FACE('',(#44),#18,.T.);
#180=ADVANCED_FACE('',(#45,#22),#171,.T.);
#181=ADVANCED_FACE('',(#46),#15,.T.);
#182=ADVANCED_FACE('',(#47),#19,.T.);
#183=ADVANCED_FACE('',(#48),#16,.T.);
#184=ADVANCED_FACE('',(#49),#37,.T.);
#185=ADVANCED_FACE('',(#50),#172,.T.);
#186=CLOSED_SHELL('',(#173,#174,#175,#176,#177,#178,#179,#180,#181,#182,
#183,#184,#185));
#187=DERIVED_UNIT_ELEMENT(#189,1.);
#188=DERIVED_UNIT_ELEMENT(#355,-3.);
#189=(
MASS_UNIT()
NAMED_UNIT(*)
SI_UNIT(.KILO.,.GRAM.)
);
#190=DERIVED_UNIT((#187,#188));
#191=MEASURE_REPRESENTATION_ITEM('density measure',
POSITIVE_RATIO_MEASURE(7850.),#190);
#192=PROPERTY_DEFINITION_REPRESENTATION(#197,#194);
#193=PROPERTY_DEFINITION_REPRESENTATION(#198,#195);
#194=REPRESENTATION('material name',(#196),#352);
#195=REPRESENTATION('density',(#191),#352);
#196=DESCRIPTIVE_REPRESENTATION_ITEM('Steel','Steel');
#197=PROPERTY_DEFINITION('material property','material name',#362);
#198=PROPERTY_DEFINITION('material property','density of part',#362);
#199=AXIS2_PLACEMENT_3D('placement',#298,#230,#231);
#200=AXIS2_PLACEMENT_3D('',#299,#232,#233);
#201=AXIS2_PLACEMENT_3D('',#301,#234,#235);
#202=AXIS2_PLACEMENT_3D('',#302,#236,#237);
#203=AXIS2_PLACEMENT_3D('',#304,#238,#239);
#204=AXIS2_PLACEMENT_3D('',#306,#241,#242);
#205=AXIS2_PLACEMENT_3D('',#308,#243,#244);
#206=AXIS2_PLACEMENT_3D('',#309,#245,#246);
#207=AXIS2_PLACEMENT_3D('',#311,#247,#248);
#208=AXIS2_PLACEMENT_3D('',#313,#250,#251);
#209=AXIS2_PLACEMENT_3D('',#315,#252,#253);
#210=AXIS2_PLACEMENT_3D('',#316,#254,#255);
#211=AXIS2_PLACEMENT_3D('',#318,#256,#257);
#212=AXIS2_PLACEMENT_3D('',#320,#259,#260);
#213=AXIS2_PLACEMENT_3D('',#322,#261,#262);
#214=AXIS2_PLACEMENT_3D('',#324,#264,#265);
#215=AXIS2_PLACEMENT_3D('',#326,#266,#267);
#216=AXIS2_PLACEMENT_3D('',#327,#268,#269);
#217=AXIS2_PLACEMENT_3D('',#330,#270,#271);
#218=AXIS2_PLACEMENT_3D('',#331,#272,#273);
#219=AXIS2_PLACEMENT_3D('',#332,#274,#275);
#220=AXIS2_PLACEMENT_3D('',#333,#276,#277);
#221=AXIS2_PLACEMENT_3D('',#336,#278,#279);
#222=AXIS2_PLACEMENT_3D('',#338,#281,#282);
#223=AXIS2_PLACEMENT_3D('',#339,#283,#284);
#224=AXIS2_PLACEMENT_3D('',#342,#285,#286);
#225=AXIS2_PLACEMENT_3D('',#343,#287,#288);
#226=AXIS2_PLACEMENT_3D('',#344,#289,#290);
#227=AXIS2_PLACEMENT_3D('',#345,#291,#292);
#228=AXIS2_PLACEMENT_3D('',#347,#293,#294);
#229=AXIS2_PLACEMENT_3D('',#349,#296,#297);
#230=DIRECTION('axis',(0.,0.,1.));
#231=DIRECTION('refdir',(1.,0.,0.));
#232=DIRECTION('center_axis',(-1.,0.,0.));
#233=DIRECTION('ref_axis',(0.,0.,1.));
#234=DIRECTION('center_axis',(1.,0.,0.));
#235=DIRECTION('ref_axis',(0.,0.,-1.));
#236=DIRECTION('center_axis',(1.,0.,0.));
#237=DIRECTION('ref_axis',(0.,1.,0.));
#238=DIRECTION('center_axis',(1.,0.,0.));
#239=DIRECTION('ref_axis',(0.,0.,-1.));
#240=DIRECTION('',(-0.874157276121537,0.485642931178633,5.94741061196451E-17));
#241=DIRECTION('center_axis',(-1.,0.,0.));
#242=DIRECTION('ref_axis',(0.,0.,1.));
#243=DIRECTION('center_axis',(1.,0.,0.));
#244=DIRECTION('ref_axis',(0.,0.,-1.));
#245=DIRECTION('center_axis',(1.,0.,0.));
#246=DIRECTION('ref_axis',(0.,1.,0.));
#247=DIRECTION('center_axis',(1.,0.,0.));
#248=DIRECTION('ref_axis',(0.,0.,-1.));
#249=DIRECTION('',(-1.,0.,0.));
#250=DIRECTION('center_axis',(-1.,0.,0.));
#251=DIRECTION('ref_axis',(0.,0.,1.));
#252=DIRECTION('center_axis',(1.,0.,0.));
#253=DIRECTION('ref_axis',(0.,0.,-1.));
#254=DIRECTION('center_axis',(1.,0.,0.));
#255=DIRECTION('ref_axis',(0.,1.,0.));
#256=DIRECTION('center_axis',(1.,0.,0.));
#257=DIRECTION('ref_axis',(0.,0.,-1.));
#258=DIRECTION('',(-0.707106781186546,0.707106781186549,8.65956056235495E-17));
#259=DIRECTION('center_axis',(1.,0.,0.));
#260=DIRECTION('ref_axis',(0.,1.,0.));
#261=DIRECTION('center_axis',(1.,0.,0.));
#262=DIRECTION('ref_axis',(0.,0.,-1.));
#263=DIRECTION('',(-1.,0.,0.));
#264=DIRECTION('center_axis',(-1.,0.,0.));
#265=DIRECTION('ref_axis',(0.,0.,1.));
#266=DIRECTION('center_axis',(1.,0.,0.));
#267=DIRECTION('ref_axis',(0.,0.,-1.));
#268=DIRECTION('center_axis',(1.,0.,0.));
#269=DIRECTION('ref_axis',(0.,0.,-1.));
#270=DIRECTION('center_axis',(1.,0.,0.));
#271=DIRECTION('ref_axis',(0.,0.,-1.));
#272=DIRECTION('center_axis',(1.,0.,0.));
#273=DIRECTION('ref_axis',(0.,0.,-1.));
#274=DIRECTION('center_axis',(0.,-1.,-1.22464679914735E-16));
#275=DIRECTION('ref_axis',(0.,-1.22464679914735E-16,1.));
#276=DIRECTION('center_axis',(1.,0.,0.));
#277=DIRECTION('ref_axis',(0.,1.,0.));
#278=DIRECTION('center_axis',(1.,0.,0.));
#279=DIRECTION('ref_axis',(0.,0.,-1.));
#280=DIRECTION('',(-1.,0.,0.));
#281=DIRECTION('center_axis',(1.,0.,0.));
#282=DIRECTION('ref_axis',(0.,0.,-1.));
#283=DIRECTION('center_axis',(1.,0.,0.));
#284=DIRECTION('ref_axis',(0.,0.,-1.));
#285=DIRECTION('center_axis',(1.,0.,0.));
#286=DIRECTION('ref_axis',(0.,0.,-1.));
#287=DIRECTION('center_axis',(1.,0.,0.));
#288=DIRECTION('ref_axis',(0.,0.,-1.));
#289=DIRECTION('center_axis',(0.,-1.,-1.22464679914735E-16));
#290=DIRECTION('ref_axis',(0.,-1.22464679914735E-16,1.));
#291=DIRECTION('center_axis',(-1.,0.,0.));
#292=DIRECTION('ref_axis',(0.,1.,0.));
#293=DIRECTION('center_axis',(1.,0.,0.));
#294=DIRECTION('ref_axis',(0.,0.,-1.));
#295=DIRECTION('',(-0.342020143325667,-0.939692620785909,-1.15079156022785E-16));
#296=DIRECTION('center_axis',(1.,0.,0.));
#297=DIRECTION('ref_axis',(0.,0.,-1.));
#298=CARTESIAN_POINT('',(0.,0.,0.));
#299=CARTESIAN_POINT('Origin',(-24.25,15.2277777777778,0.));
#300=CARTESIAN_POINT('',(-24.25,-15.2277777777778,-1.86486493136827E-15));
#301=CARTESIAN_POINT('Origin',(-24.25,0.,0.));
#302=CARTESIAN_POINT('Origin',(-21.8,0.,0.));
#303=CARTESIAN_POINT('',(-19.35,-17.95,-2.1982410044695E-15));
#304=CARTESIAN_POINT('Origin',(-19.35,0.,0.));
#305=CARTESIAN_POINT('',(-21.8,-16.5888888888889,-2.03155296791889E-15));
#306=CARTESIAN_POINT('Origin',(-19.35,20.,0.));
#307=CARTESIAN_POINT('',(-19.35,-20.,-2.44929359829471E-15));
#308=CARTESIAN_POINT('Origin',(-19.35,0.,0.));
#309=CARTESIAN_POINT('Origin',(-16.05,0.,0.));
#310=CARTESIAN_POINT('',(-12.75,-20.,-2.44929359829471E-15));
#311=CARTESIAN_POINT('Origin',(-12.75,0.,0.));
#312=CARTESIAN_POINT('',(-16.05,-20.,-2.44929359829471E-15));
#313=CARTESIAN_POINT('Origin',(-12.75,26.,0.));
#314=CARTESIAN_POINT('',(-12.75,-26.,-3.18408167778312E-15));
#315=CARTESIAN_POINT('Origin',(-12.75,0.,0.));
#316=CARTESIAN_POINT('Origin',(-12.5,0.,0.));
#317=CARTESIAN_POINT('',(-12.25,-26.5,-3.24531401774049E-15));
#318=CARTESIAN_POINT('Origin',(-12.25,0.,0.));
#319=CARTESIAN_POINT('',(-12.5,-26.25,-3.2146978477618E-15));
#320=CARTESIAN_POINT('Origin',(-7.,0.,0.));
#321=CARTESIAN_POINT('',(-1.75,-26.5,-3.24531401774049E-15));
#322=CARTESIAN_POINT('Origin',(-1.75,0.,0.));
#323=CARTESIAN_POINT('',(-7.,-26.5,-3.24531401774049E-15));
#324=CARTESIAN_POINT('Origin',(-1.75,36.85,0.));
#325=CARTESIAN_POINT('',(-1.75,-4.512823454858E-15,36.85));
#326=CARTESIAN_POINT('Origin',(-1.75,0.,0.));
#327=CARTESIAN_POINT('Origin',(0.249999999999999,0.,0.));
#328=CARTESIAN_POINT('',(0.249999999999999,-38.85,-4.75775281468747E-15));
#329=CARTESIAN_POINT('',(0.249999999999999,-4.75775281468747E-15,38.85));
#330=CARTESIAN_POINT('Origin',(0.249999999999999,0.,0.));
#331=CARTESIAN_POINT('Origin',(0.249999999999999,0.,0.));
#332=CARTESIAN_POINT('Origin',(0.249999999999999,-4.512823454858E-15,36.85));
#333=CARTESIAN_POINT('Origin',(7.87550547480246,0.,0.));
#334=CARTESIAN_POINT('',(15.5010109496049,-38.85,-4.75775281468747E-15));
#335=CARTESIAN_POINT('',(15.5010109496049,-4.75775281468747E-15,38.85));
#336=CARTESIAN_POINT('Origin',(15.5010109496049,0.,0.));
#337=CARTESIAN_POINT('',(7.87550547480246,-38.85,-4.75775281468747E-15));
#338=CARTESIAN_POINT('Origin',(15.5010109496049,0.,0.));
#339=CARTESIAN_POINT('Origin',(15.5010109496049,0.,0.));
#340=CARTESIAN_POINT('',(19.2597814327486,-36.2180805733027,-4.43543564453561E-15));
#341=CARTESIAN_POINT('',(19.2597814327486,-4.43543564453561E-15,36.2180805733027));
#342=CARTESIAN_POINT('Origin',(19.2597814327486,0.,0.));
#343=CARTESIAN_POINT('Origin',(19.2597814327486,0.,0.));
#344=CARTESIAN_POINT('Origin',(15.5010109496049,-4.26789409502853E-15,34.85));
#345=CARTESIAN_POINT('Origin',(20.2548907163743,0.,0.));
#346=CARTESIAN_POINT('',(21.25,-30.75,-3.76578890737811E-15));
#347=CARTESIAN_POINT('Origin',(21.25,0.,0.));
#348=CARTESIAN_POINT('',(20.2548907163743,-33.4840402866513,-4.10061227595686E-15));
#349=CARTESIAN_POINT('Origin',(21.25,0.,0.));
#350=UNCERTAINTY_MEASURE_WITH_UNIT(LENGTH_MEASURE(0.01),#354,
'DISTANCE_ACCURACY_VALUE',
'Maximum model space distance between geometric entities at asserted c
onnectivities');
#351=UNCERTAINTY_MEASURE_WITH_UNIT(LENGTH_MEASURE(0.01),#354,
'DISTANCE_ACCURACY_VALUE',
'Maximum model space distance between geometric entities at asserted c
onnectivities');
#352=(
GEOMETRIC_REPRESENTATION_CONTEXT(3)
GLOBAL_UNCERTAINTY_ASSIGNED_CONTEXT((#350))
GLOBAL_UNIT_ASSIGNED_CONTEXT((#354,#356,#357))
REPRESENTATION_CONTEXT('','3D')
);
#353=(
GEOMETRIC_REPRESENTATION_CONTEXT(3)
GLOBAL_UNCERTAINTY_ASSIGNED_CONTEXT((#351))
GLOBAL_UNIT_ASSIGNED_CONTEXT((#354,#356,#357))
REPRESENTATION_CONTEXT('','3D')
);
#354=(
LENGTH_UNIT()
NAMED_UNIT(*)
SI_UNIT(.MILLI.,.METRE.)
);
#355=(
LENGTH_UNIT()
NAMED_UNIT(*)
SI_UNIT($,.METRE.)
);
#356=(
NAMED_UNIT(*)
PLANE_ANGLE_UNIT()
SI_UNIT($,.RADIAN.)
);
#357=(
NAMED_UNIT(*)
SI_UNIT($,.STERADIAN.)
SOLID_ANGLE_UNIT()
);
#358=SHAPE_DEFINITION_REPRESENTATION(#359,#360);
#359=PRODUCT_DEFINITION_SHAPE('',$,#362);
#360=SHAPE_REPRESENTATION('',(#199),#352);
#361=PRODUCT_DEFINITION_CONTEXT('part definition',#366,'design');
#362=PRODUCT_DEFINITION('2-2077','2-2077 v3',#363,#361);
#363=PRODUCT_DEFINITION_FORMATION('',$,#368);
#364=PRODUCT_RELATED_PRODUCT_CATEGORY('2-2077 v3','2-2077 v3',(#368));
#365=APPLICATION_PROTOCOL_DEFINITION('international standard',
'automotive_design',2009,#366);
#366=APPLICATION_CONTEXT(
'Core Data for Automotive Mechanical Design Process');
#367=PRODUCT_CONTEXT('part definition',#366,'mechanical');
#368=PRODUCT('2-2077','2-2077 v3',$,(#367));
#369=PRESENTATION_STYLE_ASSIGNMENT((#370));
#370=SURFACE_STYLE_USAGE(.BOTH.,#371);
#371=SURFACE_SIDE_STYLE('',(#372));
#372=SURFACE_STYLE_FILL_AREA(#373);
#373=FILL_AREA_STYLE('Steel - Satin',(#374));
#374=FILL_AREA_STYLE_COLOUR('Steel - Satin',#375);
#375=COLOUR_RGB('Steel - Satin',0.627450980392157,0.627450980392157,0.627450980392157);
ENDSEC;
END-ISO-10303-21;
