ISO-10303-21;
HEADER;
/* Generated by software containing ST-Developer
 * from STEP Tools, Inc. (www.steptools.com) 
 */

FILE_DESCRIPTION(
/* description */ (''),
/* implementation_level */ '2;1');

FILE_NAME(
/* name */ '2-2070 v3.step',
/* time_stamp */ '2023-05-24T12:50:02+01:00',
/* author */ (''),
/* organization */ (''),
/* preprocessor_version */ 'ST-DEVELOPER v19.2',
/* originating_system */ 'Autodesk Translation Framework v11.17.0.187',

/* authorisation */ '');

FILE_SCHEMA (('AUTOMOTIVE_DESIGN { 1 0 10303 214 3 1 1 }'));
ENDSEC;

DATA;
#10=MECHANICAL_DESIGN_GEOMETRIC_PRESENTATION_REPRESENTATION('',(#13),#353);
#11=SHAPE_REPRESENTATION_RELATIONSHIP('SRR','None',#360,#12);
#12=ADVANCED_BREP_SHAPE_REPRESENTATION('',(#14),#352);
#13=STYLED_ITEM('',(#369),#14);
#14=MANIFOLD_SOLID_BREP('Body1',#186);
#15=CONICAL_SURFACE('',#216,30.2090402866513,1.22173047639603);
#16=CONICAL_SURFACE('',#221,13.8888888888889,0.507098504392338);
#17=CONICAL_SURFACE('',#229,23.75,0.785398163397451);
#18=TOROIDAL_SURFACE('',#205,33.55,1.5);
#19=TOROIDAL_SURFACE('',#212,31.05,3.99999999999999);
#20=FACE_BOUND('',#43,.T.);
#21=FACE_BOUND('',#52,.T.);
#22=FACE_BOUND('',#55,.T.);
#23=PLANE('',#203);
#24=PLANE('',#218);
#25=PLANE('',#219);
#26=PLANE('',#223);
#27=PLANE('',#227);
#28=FACE_OUTER_BOUND('',#41,.T.);
#29=FACE_OUTER_BOUND('',#42,.T.);
#30=FACE_OUTER_BOUND('',#44,.T.);
#31=FACE_OUTER_BOUND('',#45,.T.);
#32=FACE_OUTER_BOUND('',#46,.T.);
#33=FACE_OUTER_BOUND('',#47,.T.);
#34=FACE_OUTER_BOUND('',#48,.T.);
#35=FACE_OUTER_BOUND('',#49,.T.);
#36=FACE_OUTER_BOUND('',#50,.T.);
#37=FACE_OUTER_BOUND('',#51,.T.);
#38=FACE_OUTER_BOUND('',#53,.T.);
#39=FACE_OUTER_BOUND('',#54,.T.);
#40=FACE_OUTER_BOUND('',#56,.T.);
#41=EDGE_LOOP('',(#124,#125,#126,#127));
#42=EDGE_LOOP('',(#128));
#43=EDGE_LOOP('',(#129));
#44=EDGE_LOOP('',(#130,#131,#132,#133,#134));
#45=EDGE_LOOP('',(#135,#136,#137,#138,#139,#140));
#46=EDGE_LOOP('',(#141,#142,#143,#144,#145,#146));
#47=EDGE_LOOP('',(#147,#148,#149,#150,#151));
#48=EDGE_LOOP('',(#152));
#49=EDGE_LOOP('',(#153));
#50=EDGE_LOOP('',(#154,#155,#156,#157));
#51=EDGE_LOOP('',(#158));
#52=EDGE_LOOP('',(#159));
#53=EDGE_LOOP('',(#160,#161,#162,#163));
#54=EDGE_LOOP('',(#164));
#55=EDGE_LOOP('',(#165));
#56=EDGE_LOOP('',(#166,#167,#168,#169));
#57=LINE('',#303,#63);
#58=LINE('',#318,#64);
#59=LINE('',#329,#65);
#60=LINE('',#337,#66);
#61=LINE('',#344,#67);
#62=LINE('',#349,#68);
#63=VECTOR('',#236,24.);
#64=VECTOR('',#255,35.05);
#65=VECTOR('',#270,30.2090402866513);
#66=VECTOR('',#281,13.8888888888889);
#67=VECTOR('',#290,17.5);
#68=VECTOR('',#297,23.75);
#69=CIRCLE('',#201,24.);
#70=CIRCLE('',#202,24.);
#71=CIRCLE('',#204,33.55);
#72=CIRCLE('',#206,35.05);
#73=CIRCLE('',#207,35.05);
#74=CIRCLE('',#208,1.5);
#75=CIRCLE('',#210,35.05);
#76=CIRCLE('',#211,35.05);
#77=CIRCLE('',#213,32.4180805733027);
#78=CIRCLE('',#214,32.4180805733027);
#79=CIRCLE('',#215,3.99999999999999);
#80=CIRCLE('',#217,28.);
#81=CIRCLE('',#220,12.5);
#82=CIRCLE('',#222,15.2777777777778);
#83=CIRCLE('',#224,17.5);
#84=CIRCLE('',#226,17.5);
#85=CIRCLE('',#228,23.5);
#86=VERTEX_POINT('',#300);
#87=VERTEX_POINT('',#302);
#88=VERTEX_POINT('',#306);
#89=VERTEX_POINT('',#309);
#90=VERTEX_POINT('',#310);
#91=VERTEX_POINT('',#315);
#92=VERTEX_POINT('',#316);
#93=VERTEX_POINT('',#321);
#94=VERTEX_POINT('',#322);
#95=VERTEX_POINT('',#327);
#96=VERTEX_POINT('',#332);
#97=VERTEX_POINT('',#335);
#98=VERTEX_POINT('',#339);
#99=VERTEX_POINT('',#342);
#100=VERTEX_POINT('',#346);
#101=EDGE_CURVE('',#86,#86,#69,.T.);
#102=EDGE_CURVE('',#86,#87,#57,.T.);
#103=EDGE_CURVE('',#87,#87,#70,.T.);
#104=EDGE_CURVE('',#88,#88,#71,.T.);
#105=EDGE_CURVE('',#89,#90,#72,.T.);
#106=EDGE_CURVE('',#90,#89,#73,.T.);
#107=EDGE_CURVE('',#90,#88,#74,.T.);
#108=EDGE_CURVE('',#91,#92,#75,.T.);
#109=EDGE_CURVE('',#91,#89,#58,.T.);
#110=EDGE_CURVE('',#92,#91,#76,.T.);
#111=EDGE_CURVE('',#93,#94,#77,.T.);
#112=EDGE_CURVE('',#94,#93,#78,.T.);
#113=EDGE_CURVE('',#94,#92,#79,.T.);
#114=EDGE_CURVE('',#95,#95,#80,.T.);
#115=EDGE_CURVE('',#95,#93,#59,.T.);
#116=EDGE_CURVE('',#96,#96,#81,.T.);
#117=EDGE_CURVE('',#97,#97,#82,.T.);
#118=EDGE_CURVE('',#97,#96,#60,.T.);
#119=EDGE_CURVE('',#98,#98,#83,.T.);
#120=EDGE_CURVE('',#99,#99,#84,.T.);
#121=EDGE_CURVE('',#99,#98,#61,.T.);
#122=EDGE_CURVE('',#100,#100,#85,.T.);
#123=EDGE_CURVE('',#87,#100,#62,.T.);
#124=ORIENTED_EDGE('',*,*,#101,.F.);
#125=ORIENTED_EDGE('',*,*,#102,.T.);
#126=ORIENTED_EDGE('',*,*,#103,.T.);
#127=ORIENTED_EDGE('',*,*,#102,.F.);
#128=ORIENTED_EDGE('',*,*,#104,.F.);
#129=ORIENTED_EDGE('',*,*,#101,.T.);
#130=ORIENTED_EDGE('',*,*,#105,.F.);
#131=ORIENTED_EDGE('',*,*,#106,.F.);
#132=ORIENTED_EDGE('',*,*,#107,.T.);
#133=ORIENTED_EDGE('',*,*,#104,.T.);
#134=ORIENTED_EDGE('',*,*,#107,.F.);
#135=ORIENTED_EDGE('',*,*,#108,.F.);
#136=ORIENTED_EDGE('',*,*,#109,.T.);
#137=ORIENTED_EDGE('',*,*,#105,.T.);
#138=ORIENTED_EDGE('',*,*,#106,.T.);
#139=ORIENTED_EDGE('',*,*,#109,.F.);
#140=ORIENTED_EDGE('',*,*,#110,.F.);
#141=ORIENTED_EDGE('',*,*,#111,.F.);
#142=ORIENTED_EDGE('',*,*,#112,.F.);
#143=ORIENTED_EDGE('',*,*,#113,.T.);
#144=ORIENTED_EDGE('',*,*,#110,.T.);
#145=ORIENTED_EDGE('',*,*,#108,.T.);
#146=ORIENTED_EDGE('',*,*,#113,.F.);
#147=ORIENTED_EDGE('',*,*,#114,.F.);
#148=ORIENTED_EDGE('',*,*,#115,.T.);
#149=ORIENTED_EDGE('',*,*,#111,.T.);
#150=ORIENTED_EDGE('',*,*,#112,.T.);
#151=ORIENTED_EDGE('',*,*,#115,.F.);
#152=ORIENTED_EDGE('',*,*,#114,.T.);
#153=ORIENTED_EDGE('',*,*,#116,.F.);
#154=ORIENTED_EDGE('',*,*,#117,.F.);
#155=ORIENTED_EDGE('',*,*,#118,.T.);
#156=ORIENTED_EDGE('',*,*,#116,.T.);
#157=ORIENTED_EDGE('',*,*,#118,.F.);
#158=ORIENTED_EDGE('',*,*,#119,.F.);
#159=ORIENTED_EDGE('',*,*,#117,.T.);
#160=ORIENTED_EDGE('',*,*,#120,.F.);
#161=ORIENTED_EDGE('',*,*,#121,.T.);
#162=ORIENTED_EDGE('',*,*,#119,.T.);
#163=ORIENTED_EDGE('',*,*,#121,.F.);
#164=ORIENTED_EDGE('',*,*,#122,.F.);
#165=ORIENTED_EDGE('',*,*,#120,.T.);
#166=ORIENTED_EDGE('',*,*,#103,.F.);
#167=ORIENTED_EDGE('',*,*,#123,.T.);
#168=ORIENTED_EDGE('',*,*,#122,.T.);
#169=ORIENTED_EDGE('',*,*,#123,.F.);
#170=CYLINDRICAL_SURFACE('',#200,24.);
#171=CYLINDRICAL_SURFACE('',#209,35.05);
#172=CYLINDRICAL_SURFACE('',#225,17.5);
#173=ADVANCED_FACE('',(#28),#170,.T.);
#174=ADVANCED_FACE('',(#29,#20),#23,.T.);
#175=ADVANCED_FACE('',(#30),#18,.T.);
#176=ADVANCED_FACE('',(#31),#171,.T.);
#177=ADVANCED_FACE('',(#32),#19,.T.);
#178=ADVANCED_FACE('',(#33),#15,.T.);
#179=ADVANCED_FACE('',(#34),#24,.T.);
#180=ADVANCED_FACE('',(#35),#25,.T.);
#181=ADVANCED_FACE('',(#36),#16,.T.);
#182=ADVANCED_FACE('',(#37,#21),#26,.T.);
#183=ADVANCED_FACE('',(#38),#172,.T.);
#184=ADVANCED_FACE('',(#39,#22),#27,.T.);
#185=ADVANCED_FACE('',(#40),#17,.T.);
#186=CLOSED_SHELL('',(#173,#174,#175,#176,#177,#178,#179,#180,#181,#182,
#183,#184,#185));
#187=DERIVED_UNIT_ELEMENT(#189,1.);
#188=DERIVED_UNIT_ELEMENT(#355,-3.);
#189=(
MASS_UNIT()
NAMED_UNIT(*)
SI_UNIT(.KILO.,.GRAM.)
);
#190=DERIVED_UNIT((#187,#188));
#191=MEASURE_REPRESENTATION_ITEM('density measure',
POSITIVE_RATIO_MEASURE(7850.),#190);
#192=PROPERTY_DEFINITION_REPRESENTATION(#197,#194);
#193=PROPERTY_DEFINITION_REPRESENTATION(#198,#195);
#194=REPRESENTATION('material name',(#196),#352);
#195=REPRESENTATION('density',(#191),#352);
#196=DESCRIPTIVE_REPRESENTATION_ITEM('Steel','Steel');
#197=PROPERTY_DEFINITION('material property','material name',#362);
#198=PROPERTY_DEFINITION('material property','density of part',#362);
#199=AXIS2_PLACEMENT_3D('placement',#298,#230,#231);
#200=AXIS2_PLACEMENT_3D('',#299,#232,#233);
#201=AXIS2_PLACEMENT_3D('',#301,#234,#235);
#202=AXIS2_PLACEMENT_3D('',#304,#237,#238);
#203=AXIS2_PLACEMENT_3D('',#305,#239,#240);
#204=AXIS2_PLACEMENT_3D('',#307,#241,#242);
#205=AXIS2_PLACEMENT_3D('',#308,#243,#244);
#206=AXIS2_PLACEMENT_3D('',#311,#245,#246);
#207=AXIS2_PLACEMENT_3D('',#312,#247,#248);
#208=AXIS2_PLACEMENT_3D('',#313,#249,#250);
#209=AXIS2_PLACEMENT_3D('',#314,#251,#252);
#210=AXIS2_PLACEMENT_3D('',#317,#253,#254);
#211=AXIS2_PLACEMENT_3D('',#319,#256,#257);
#212=AXIS2_PLACEMENT_3D('',#320,#258,#259);
#213=AXIS2_PLACEMENT_3D('',#323,#260,#261);
#214=AXIS2_PLACEMENT_3D('',#324,#262,#263);
#215=AXIS2_PLACEMENT_3D('',#325,#264,#265);
#216=AXIS2_PLACEMENT_3D('',#326,#266,#267);
#217=AXIS2_PLACEMENT_3D('',#328,#268,#269);
#218=AXIS2_PLACEMENT_3D('',#330,#271,#272);
#219=AXIS2_PLACEMENT_3D('',#331,#273,#274);
#220=AXIS2_PLACEMENT_3D('',#333,#275,#276);
#221=AXIS2_PLACEMENT_3D('',#334,#277,#278);
#222=AXIS2_PLACEMENT_3D('',#336,#279,#280);
#223=AXIS2_PLACEMENT_3D('',#338,#282,#283);
#224=AXIS2_PLACEMENT_3D('',#340,#284,#285);
#225=AXIS2_PLACEMENT_3D('',#341,#286,#287);
#226=AXIS2_PLACEMENT_3D('',#343,#288,#289);
#227=AXIS2_PLACEMENT_3D('',#345,#291,#292);
#228=AXIS2_PLACEMENT_3D('',#347,#293,#294);
#229=AXIS2_PLACEMENT_3D('',#348,#295,#296);
#230=DIRECTION('axis',(0.,0.,1.));
#231=DIRECTION('refdir',(1.,0.,0.));
#232=DIRECTION('center_axis',(1.,0.,0.));
#233=DIRECTION('ref_axis',(0.,1.,0.));
#234=DIRECTION('center_axis',(1.,0.,0.));
#235=DIRECTION('ref_axis',(0.,0.,-1.));
#236=DIRECTION('',(-1.,0.,0.));
#237=DIRECTION('center_axis',(1.,0.,0.));
#238=DIRECTION('ref_axis',(0.,0.,-1.));
#239=DIRECTION('center_axis',(-1.,0.,0.));
#240=DIRECTION('ref_axis',(0.,0.,1.));
#241=DIRECTION('center_axis',(1.,0.,0.));
#242=DIRECTION('ref_axis',(0.,0.,-1.));
#243=DIRECTION('center_axis',(1.,0.,0.));
#244=DIRECTION('ref_axis',(0.,0.,-1.));
#245=DIRECTION('center_axis',(1.,0.,0.));
#246=DIRECTION('ref_axis',(0.,0.,-1.));
#247=DIRECTION('center_axis',(1.,0.,0.));
#248=DIRECTION('ref_axis',(0.,0.,-1.));
#249=DIRECTION('center_axis',(0.,-1.,-1.22464679914735E-16));
#250=DIRECTION('ref_axis',(0.,-1.22464679914735E-16,1.));
#251=DIRECTION('center_axis',(1.,0.,0.));
#252=DIRECTION('ref_axis',(0.,1.,0.));
#253=DIRECTION('center_axis',(1.,0.,0.));
#254=DIRECTION('ref_axis',(0.,0.,-1.));
#255=DIRECTION('',(-1.,0.,0.));
#256=DIRECTION('center_axis',(1.,0.,0.));
#257=DIRECTION('ref_axis',(0.,0.,-1.));
#258=DIRECTION('center_axis',(1.,0.,0.));
#259=DIRECTION('ref_axis',(0.,0.,-1.));
#260=DIRECTION('center_axis',(1.,0.,0.));
#261=DIRECTION('ref_axis',(0.,0.,-1.));
#262=DIRECTION('center_axis',(1.,0.,0.));
#263=DIRECTION('ref_axis',(0.,0.,-1.));
#264=DIRECTION('center_axis',(0.,-1.,-1.22464679914735E-16));
#265=DIRECTION('ref_axis',(0.,-1.22464679914735E-16,1.));
#266=DIRECTION('center_axis',(-1.,0.,0.));
#267=DIRECTION('ref_axis',(0.,1.,0.));
#268=DIRECTION('center_axis',(1.,0.,0.));
#269=DIRECTION('ref_axis',(0.,0.,-1.));
#270=DIRECTION('',(-0.342020143325667,-0.939692620785909,-1.15079156022785E-16));
#271=DIRECTION('center_axis',(1.,0.,0.));
#272=DIRECTION('ref_axis',(0.,0.,-1.));
#273=DIRECTION('center_axis',(-1.,0.,0.));
#274=DIRECTION('ref_axis',(0.,0.,1.));
#275=DIRECTION('center_axis',(1.,0.,0.));
#276=DIRECTION('ref_axis',(0.,0.,-1.));
#277=DIRECTION('center_axis',(1.,0.,0.));
#278=DIRECTION('ref_axis',(0.,1.,0.));
#279=DIRECTION('center_axis',(1.,0.,0.));
#280=DIRECTION('ref_axis',(0.,0.,-1.));
#281=DIRECTION('',(-0.874157276121537,0.485642931178633,5.94741061196451E-17));
#282=DIRECTION('center_axis',(-1.,0.,0.));
#283=DIRECTION('ref_axis',(0.,0.,1.));
#284=DIRECTION('center_axis',(1.,0.,0.));
#285=DIRECTION('ref_axis',(0.,0.,-1.));
#286=DIRECTION('center_axis',(1.,0.,0.));
#287=DIRECTION('ref_axis',(0.,1.,0.));
#288=DIRECTION('center_axis',(1.,0.,0.));
#289=DIRECTION('ref_axis',(0.,0.,-1.));
#290=DIRECTION('',(-1.,0.,0.));
#291=DIRECTION('center_axis',(-1.,0.,0.));
#292=DIRECTION('ref_axis',(0.,0.,1.));
#293=DIRECTION('center_axis',(1.,0.,0.));
#294=DIRECTION('ref_axis',(0.,0.,-1.));
#295=DIRECTION('center_axis',(1.,0.,0.));
#296=DIRECTION('ref_axis',(0.,1.,0.));
#297=DIRECTION('',(-0.707106781186546,0.707106781186549,8.65956056235495E-17));
#298=CARTESIAN_POINT('',(0.,0.,0.));
#299=CARTESIAN_POINT('Origin',(-7.,0.,0.));
#300=CARTESIAN_POINT('',(-1.75,-24.,-2.93915231795365E-15));
#301=CARTESIAN_POINT('Origin',(-1.75,0.,0.));
#302=CARTESIAN_POINT('',(-12.25,-24.,-2.93915231795365E-15));
#303=CARTESIAN_POINT('',(-7.,-24.,-2.93915231795365E-15));
#304=CARTESIAN_POINT('Origin',(-12.25,0.,0.));
#305=CARTESIAN_POINT('Origin',(-1.75,33.55,0.));
#306=CARTESIAN_POINT('',(-1.75,-4.10869001113937E-15,33.55));
#307=CARTESIAN_POINT('Origin',(-1.75,0.,0.));
#308=CARTESIAN_POINT('Origin',(-0.249999999999999,0.,0.));
#309=CARTESIAN_POINT('',(-0.249999999999999,-35.05,-4.29238703101147E-15));
#310=CARTESIAN_POINT('',(-0.249999999999999,-4.29238703101147E-15,35.05));
#311=CARTESIAN_POINT('Origin',(-0.249999999999999,0.,0.));
#312=CARTESIAN_POINT('Origin',(-0.249999999999999,0.,0.));
#313=CARTESIAN_POINT('Origin',(-0.249999999999999,-4.10869001113937E-15,
33.55));
#314=CARTESIAN_POINT('Origin',(7.81658984779222,0.,0.));
#315=CARTESIAN_POINT('',(15.8831796955844,-35.05,-4.29238703101147E-15));
#316=CARTESIAN_POINT('',(15.8831796955844,-4.29238703101147E-15,35.05));
#317=CARTESIAN_POINT('Origin',(15.8831796955844,0.,0.));
#318=CARTESIAN_POINT('',(7.81658984779222,-35.05,-4.29238703101147E-15));
#319=CARTESIAN_POINT('Origin',(15.8831796955844,0.,0.));
#320=CARTESIAN_POINT('Origin',(15.8831796955845,0.,0.));
#321=CARTESIAN_POINT('',(19.6419501787281,-32.4180805733027,-3.97006986085961E-15));
#322=CARTESIAN_POINT('',(19.6419501787281,-3.97006986085961E-15,32.4180805733027));
#323=CARTESIAN_POINT('Origin',(19.6419501787281,0.,0.));
#324=CARTESIAN_POINT('Origin',(19.6419501787281,0.,0.));
#325=CARTESIAN_POINT('Origin',(15.8831796955845,-3.80252831135253E-15,31.05));
#326=CARTESIAN_POINT('Origin',(20.445975089364,0.,0.));
#327=CARTESIAN_POINT('',(21.25,-28.,-3.42901103761259E-15));
#328=CARTESIAN_POINT('Origin',(21.25,0.,0.));
#329=CARTESIAN_POINT('',(20.445975089364,-30.2090402866513,-3.6995404492361E-15));
#330=CARTESIAN_POINT('Origin',(21.25,0.,0.));
#331=CARTESIAN_POINT('Origin',(-20.75,12.5,0.));
#332=CARTESIAN_POINT('',(-20.75,-12.5,-1.53080849893419E-15));
#333=CARTESIAN_POINT('Origin',(-20.75,0.,0.));
#334=CARTESIAN_POINT('Origin',(-18.25,0.,0.));
#335=CARTESIAN_POINT('',(-15.75,-15.2777777777778,-1.87098816536401E-15));
#336=CARTESIAN_POINT('Origin',(-15.75,0.,0.));
#337=CARTESIAN_POINT('',(-18.25,-13.8888888888889,-1.7008983321491E-15));
#338=CARTESIAN_POINT('Origin',(-15.75,17.5,0.));
#339=CARTESIAN_POINT('',(-15.75,-17.5,-2.14313189850787E-15));
#340=CARTESIAN_POINT('Origin',(-15.75,0.,0.));
#341=CARTESIAN_POINT('Origin',(-14.25,0.,0.));
#342=CARTESIAN_POINT('',(-12.75,-17.5,-2.14313189850787E-15));
#343=CARTESIAN_POINT('Origin',(-12.75,0.,0.));
#344=CARTESIAN_POINT('',(-14.25,-17.5,-2.14313189850787E-15));
#345=CARTESIAN_POINT('Origin',(-12.75,23.5,0.));
#346=CARTESIAN_POINT('',(-12.75,-23.5,-2.87791997799628E-15));
#347=CARTESIAN_POINT('Origin',(-12.75,0.,0.));
#348=CARTESIAN_POINT('Origin',(-12.5,0.,0.));
#349=CARTESIAN_POINT('',(-12.5,-23.75,-2.90853614797496E-15));
#350=UNCERTAINTY_MEASURE_WITH_UNIT(LENGTH_MEASURE(0.01),#354,
'DISTANCE_ACCURACY_VALUE',
'Maximum model space distance between geometric entities at asserted c
onnectivities');
#351=UNCERTAINTY_MEASURE_WITH_UNIT(LENGTH_MEASURE(0.01),#354,
'DISTANCE_ACCURACY_VALUE',
'Maximum model space distance between geometric entities at asserted c
onnectivities');
#352=(
GEOMETRIC_REPRESENTATION_CONTEXT(3)
GLOBAL_UNCERTAINTY_ASSIGNED_CONTEXT((#350))
GLOBAL_UNIT_ASSIGNED_CONTEXT((#354,#356,#357))
REPRESENTATION_CONTEXT('','3D')
);
#353=(
GEOMETRIC_REPRESENTATION_CONTEXT(3)
GLOBAL_UNCERTAINTY_ASSIGNED_CONTEXT((#351))
GLOBAL_UNIT_ASSIGNED_CONTEXT((#354,#356,#357))
REPRESENTATION_CONTEXT('','3D')
);
#354=(
LENGTH_UNIT()
NAMED_UNIT(*)
SI_UNIT(.MILLI.,.METRE.)
);
#355=(
LENGTH_UNIT()
NAMED_UNIT(*)
SI_UNIT($,.METRE.)
);
#356=(
NAMED_UNIT(*)
PLANE_ANGLE_UNIT()
SI_UNIT($,.RADIAN.)
);
#357=(
NAMED_UNIT(*)
SI_UNIT($,.STERADIAN.)
SOLID_ANGLE_UNIT()
);
#358=SHAPE_DEFINITION_REPRESENTATION(#359,#360);
#359=PRODUCT_DEFINITION_SHAPE('',$,#362);
#360=SHAPE_REPRESENTATION('',(#199),#352);
#361=PRODUCT_DEFINITION_CONTEXT('part definition',#366,'design');
#362=PRODUCT_DEFINITION('2-2070','2-2070 v3',#363,#361);
#363=PRODUCT_DEFINITION_FORMATION('',$,#368);
#364=PRODUCT_RELATED_PRODUCT_CATEGORY('2-2070 v3','2-2070 v3',(#368));
#365=APPLICATION_PROTOCOL_DEFINITION('international standard',
'automotive_design',2009,#366);
#366=APPLICATION_CONTEXT(
'Core Data for Automotive Mechanical Design Process');
#367=PRODUCT_CONTEXT('part definition',#366,'mechanical');
#368=PRODUCT('2-2070','2-2070 v3',$,(#367));
#369=PRESENTATION_STYLE_ASSIGNMENT((#370));
#370=SURFACE_STYLE_USAGE(.BOTH.,#371);
#371=SURFACE_SIDE_STYLE('',(#372));
#372=SURFACE_STYLE_FILL_AREA(#373);
#373=FILL_AREA_STYLE('Steel - Satin',(#374));
#374=FILL_AREA_STYLE_COLOUR('Steel - Satin',#375);
#375=COLOUR_RGB('Steel - Satin',0.627450980392157,0.627450980392157,0.627450980392157);
ENDSEC;
END-ISO-10303-21;
