ISO-10303-21;
HEADER;
/* Generated by software containing ST-Developer
 * from STEP Tools, Inc. (www.steptools.com) 
 */

FILE_DESCRIPTION(
/* description */ (''),
/* implementation_level */ '2;1');

FILE_NAME(
/* name */ '/Users/matt/Desktop/2-2062_EXPORT v3.step',
/* time_stamp */ '2021-01-21T16:37:57+00:00',
/* author */ (''),
/* organization */ (''),
/* preprocessor_version */ 'ST-DEVELOPER v18.1',
/* originating_system */ 'Autodesk Translation Framework v9.7.0.1280',
/* authorisation */ '');

FILE_SCHEMA (('AUTOMOTIVE_DESIGN { 1 0 10303 214 3 1 1 }'));
ENDSEC;

DATA;
#10=MECHANICAL_DESIGN_GEOMETRIC_PRESENTATION_REPRESENTATION('',(#17),#367);
#11=ITEM_DEFINED_TRANSFORMATION($,$,#204,#235);
#12=(
REPRESENTATION_RELATIONSHIP($,$,#378,#377)
REPRESENTATION_RELATIONSHIP_WITH_TRANSFORMATION(#11)
SHAPE_REPRESENTATION_RELATIONSHIP()
);
#13=CONTEXT_DEPENDENT_SHAPE_REPRESENTATION(#12,#376);
#14=NEXT_ASSEMBLY_USAGE_OCCURRENCE('EBL-2-2062:1','EBL-2-2062:1',
'EBL-2-2062:1',#380,#381,'EBL-2-2062:1');
#15=SHAPE_REPRESENTATION_RELATIONSHIP('SRR','None',#378,#16);
#16=ADVANCED_BREP_SHAPE_REPRESENTATION('',(#18),#366);
#17=STYLED_ITEM('',(#391),#18);
#18=MANIFOLD_SOLID_BREP('Body1',#190);
#19=TOROIDAL_SURFACE('',#218,29.,2.);
#20=TOROIDAL_SURFACE('',#225,28.,3.00000000000001);
#21=CONICAL_SURFACE('',#212,20.75,0.785398163397446);
#22=CONICAL_SURFACE('',#229,26.9629697080495,1.22173047639603);
#23=CONICAL_SURFACE('',#234,12.5,0.507098504392338);
#24=LINE('',#318,#30);
#25=LINE('',#325,#31);
#26=LINE('',#329,#32);
#27=LINE('',#343,#33);
#28=LINE('',#354,#34);
#29=LINE('',#360,#35);
#30=VECTOR('',#250,15.);
#31=VECTOR('',#259,20.75);
#32=VECTOR('',#264,21.);
#33=VECTOR('',#281,31.);
#34=VECTOR('',#296,26.9629697080495);
#35=VECTOR('',#305,12.5);
#36=CYLINDRICAL_SURFACE('',#208,15.);
#37=CYLINDRICAL_SURFACE('',#214,21.);
#38=CYLINDRICAL_SURFACE('',#222,31.);
#39=FACE_BOUND('',#56,.T.);
#40=FACE_BOUND('',#59,.T.);
#41=FACE_BOUND('',#63,.T.);
#42=FACE_OUTER_BOUND('',#55,.T.);
#43=FACE_OUTER_BOUND('',#57,.T.);
#44=FACE_OUTER_BOUND('',#58,.T.);
#45=FACE_OUTER_BOUND('',#60,.T.);
#46=FACE_OUTER_BOUND('',#61,.T.);
#47=FACE_OUTER_BOUND('',#62,.T.);
#48=FACE_OUTER_BOUND('',#64,.T.);
#49=FACE_OUTER_BOUND('',#65,.T.);
#50=FACE_OUTER_BOUND('',#66,.T.);
#51=FACE_OUTER_BOUND('',#67,.T.);
#52=FACE_OUTER_BOUND('',#68,.T.);
#53=FACE_OUTER_BOUND('',#69,.T.);
#54=FACE_OUTER_BOUND('',#70,.T.);
#55=EDGE_LOOP('',(#126));
#56=EDGE_LOOP('',(#127));
#57=EDGE_LOOP('',(#128,#129,#130,#131));
#58=EDGE_LOOP('',(#132));
#59=EDGE_LOOP('',(#133));
#60=EDGE_LOOP('',(#134,#135,#136,#137));
#61=EDGE_LOOP('',(#138,#139,#140,#141));
#62=EDGE_LOOP('',(#142));
#63=EDGE_LOOP('',(#143));
#64=EDGE_LOOP('',(#144,#145,#146,#147,#148));
#65=EDGE_LOOP('',(#149,#150,#151,#152,#153,#154));
#66=EDGE_LOOP('',(#155,#156,#157,#158,#159,#160));
#67=EDGE_LOOP('',(#161,#162,#163,#164,#165));
#68=EDGE_LOOP('',(#166));
#69=EDGE_LOOP('',(#167));
#70=EDGE_LOOP('',(#168,#169,#170,#171));
#71=CIRCLE('',#206,15.);
#72=CIRCLE('',#207,13.5);
#73=CIRCLE('',#209,15.);
#74=CIRCLE('',#211,20.5);
#75=CIRCLE('',#213,21.);
#76=CIRCLE('',#215,21.);
#77=CIRCLE('',#217,29.);
#78=CIRCLE('',#219,31.);
#79=CIRCLE('',#220,31.);
#80=CIRCLE('',#221,2.);
#81=CIRCLE('',#223,31.);
#82=CIRCLE('',#224,31.);
#83=CIRCLE('',#226,29.026060429977);
#84=CIRCLE('',#227,29.026060429977);
#85=CIRCLE('',#228,3.00000000000001);
#86=CIRCLE('',#230,24.899878986122);
#87=CIRCLE('',#233,11.5);
#88=VERTEX_POINT('',#311);
#89=VERTEX_POINT('',#313);
#90=VERTEX_POINT('',#316);
#91=VERTEX_POINT('',#320);
#92=VERTEX_POINT('',#323);
#93=VERTEX_POINT('',#327);
#94=VERTEX_POINT('',#331);
#95=VERTEX_POINT('',#334);
#96=VERTEX_POINT('',#335);
#97=VERTEX_POINT('',#340);
#98=VERTEX_POINT('',#341);
#99=VERTEX_POINT('',#346);
#100=VERTEX_POINT('',#347);
#101=VERTEX_POINT('',#352);
#102=VERTEX_POINT('',#357);
#103=EDGE_CURVE('',#88,#88,#71,.T.);
#104=EDGE_CURVE('',#89,#89,#72,.T.);
#105=EDGE_CURVE('',#90,#90,#73,.T.);
#106=EDGE_CURVE('',#90,#88,#24,.T.);
#107=EDGE_CURVE('',#91,#91,#74,.T.);
#108=EDGE_CURVE('',#92,#92,#75,.T.);
#109=EDGE_CURVE('',#92,#91,#25,.T.);
#110=EDGE_CURVE('',#93,#93,#76,.T.);
#111=EDGE_CURVE('',#93,#92,#26,.T.);
#112=EDGE_CURVE('',#94,#94,#77,.T.);
#113=EDGE_CURVE('',#95,#96,#78,.T.);
#114=EDGE_CURVE('',#96,#95,#79,.T.);
#115=EDGE_CURVE('',#96,#94,#80,.T.);
#116=EDGE_CURVE('',#97,#98,#81,.T.);
#117=EDGE_CURVE('',#97,#95,#27,.T.);
#118=EDGE_CURVE('',#98,#97,#82,.T.);
#119=EDGE_CURVE('',#99,#100,#83,.T.);
#120=EDGE_CURVE('',#100,#99,#84,.T.);
#121=EDGE_CURVE('',#100,#98,#85,.T.);
#122=EDGE_CURVE('',#101,#101,#86,.T.);
#123=EDGE_CURVE('',#101,#99,#28,.T.);
#124=EDGE_CURVE('',#102,#102,#87,.T.);
#125=EDGE_CURVE('',#89,#102,#29,.T.);
#126=ORIENTED_EDGE('',*,*,#103,.F.);
#127=ORIENTED_EDGE('',*,*,#104,.T.);
#128=ORIENTED_EDGE('',*,*,#105,.F.);
#129=ORIENTED_EDGE('',*,*,#106,.T.);
#130=ORIENTED_EDGE('',*,*,#103,.T.);
#131=ORIENTED_EDGE('',*,*,#106,.F.);
#132=ORIENTED_EDGE('',*,*,#107,.F.);
#133=ORIENTED_EDGE('',*,*,#105,.T.);
#134=ORIENTED_EDGE('',*,*,#108,.F.);
#135=ORIENTED_EDGE('',*,*,#109,.T.);
#136=ORIENTED_EDGE('',*,*,#107,.T.);
#137=ORIENTED_EDGE('',*,*,#109,.F.);
#138=ORIENTED_EDGE('',*,*,#110,.F.);
#139=ORIENTED_EDGE('',*,*,#111,.T.);
#140=ORIENTED_EDGE('',*,*,#108,.T.);
#141=ORIENTED_EDGE('',*,*,#111,.F.);
#142=ORIENTED_EDGE('',*,*,#112,.F.);
#143=ORIENTED_EDGE('',*,*,#110,.T.);
#144=ORIENTED_EDGE('',*,*,#113,.F.);
#145=ORIENTED_EDGE('',*,*,#114,.F.);
#146=ORIENTED_EDGE('',*,*,#115,.T.);
#147=ORIENTED_EDGE('',*,*,#112,.T.);
#148=ORIENTED_EDGE('',*,*,#115,.F.);
#149=ORIENTED_EDGE('',*,*,#116,.F.);
#150=ORIENTED_EDGE('',*,*,#117,.T.);
#151=ORIENTED_EDGE('',*,*,#113,.T.);
#152=ORIENTED_EDGE('',*,*,#114,.T.);
#153=ORIENTED_EDGE('',*,*,#117,.F.);
#154=ORIENTED_EDGE('',*,*,#118,.F.);
#155=ORIENTED_EDGE('',*,*,#119,.F.);
#156=ORIENTED_EDGE('',*,*,#120,.F.);
#157=ORIENTED_EDGE('',*,*,#121,.T.);
#158=ORIENTED_EDGE('',*,*,#118,.T.);
#159=ORIENTED_EDGE('',*,*,#116,.T.);
#160=ORIENTED_EDGE('',*,*,#121,.F.);
#161=ORIENTED_EDGE('',*,*,#122,.F.);
#162=ORIENTED_EDGE('',*,*,#123,.T.);
#163=ORIENTED_EDGE('',*,*,#119,.T.);
#164=ORIENTED_EDGE('',*,*,#120,.T.);
#165=ORIENTED_EDGE('',*,*,#123,.F.);
#166=ORIENTED_EDGE('',*,*,#122,.T.);
#167=ORIENTED_EDGE('',*,*,#124,.F.);
#168=ORIENTED_EDGE('',*,*,#104,.F.);
#169=ORIENTED_EDGE('',*,*,#125,.T.);
#170=ORIENTED_EDGE('',*,*,#124,.T.);
#171=ORIENTED_EDGE('',*,*,#125,.F.);
#172=PLANE('',#205);
#173=PLANE('',#210);
#174=PLANE('',#216);
#175=PLANE('',#231);
#176=PLANE('',#232);
#177=ADVANCED_FACE('',(#42,#39),#172,.T.);
#178=ADVANCED_FACE('',(#43),#36,.T.);
#179=ADVANCED_FACE('',(#44,#40),#173,.T.);
#180=ADVANCED_FACE('',(#45),#21,.T.);
#181=ADVANCED_FACE('',(#46),#37,.T.);
#182=ADVANCED_FACE('',(#47,#41),#174,.T.);
#183=ADVANCED_FACE('',(#48),#19,.T.);
#184=ADVANCED_FACE('',(#49),#38,.T.);
#185=ADVANCED_FACE('',(#50),#20,.T.);
#186=ADVANCED_FACE('',(#51),#22,.T.);
#187=ADVANCED_FACE('',(#52),#175,.T.);
#188=ADVANCED_FACE('',(#53),#176,.T.);
#189=ADVANCED_FACE('',(#54),#23,.T.);
#190=CLOSED_SHELL('',(#177,#178,#179,#180,#181,#182,#183,#184,#185,#186,
#187,#188,#189));
#191=DERIVED_UNIT_ELEMENT(#193,1.);
#192=DERIVED_UNIT_ELEMENT(#369,-3.);
#193=(
MASS_UNIT()
NAMED_UNIT(*)
SI_UNIT(.KILO.,.GRAM.)
);
#194=DERIVED_UNIT((#191,#192));
#195=MEASURE_REPRESENTATION_ITEM('density measure',
POSITIVE_RATIO_MEASURE(7850.),#194);
#196=PROPERTY_DEFINITION_REPRESENTATION(#201,#198);
#197=PROPERTY_DEFINITION_REPRESENTATION(#202,#199);
#198=REPRESENTATION('material name',(#200),#366);
#199=REPRESENTATION('density',(#195),#366);
#200=DESCRIPTIVE_REPRESENTATION_ITEM('Steel','Steel');
#201=PROPERTY_DEFINITION('material property','material name',#381);
#202=PROPERTY_DEFINITION('material property','density of part',#381);
#203=AXIS2_PLACEMENT_3D('placement',#308,#236,#237);
#204=AXIS2_PLACEMENT_3D('placement',#309,#238,#239);
#205=AXIS2_PLACEMENT_3D('',#310,#240,#241);
#206=AXIS2_PLACEMENT_3D('',#312,#242,#243);
#207=AXIS2_PLACEMENT_3D('',#314,#244,#245);
#208=AXIS2_PLACEMENT_3D('',#315,#246,#247);
#209=AXIS2_PLACEMENT_3D('',#317,#248,#249);
#210=AXIS2_PLACEMENT_3D('',#319,#251,#252);
#211=AXIS2_PLACEMENT_3D('',#321,#253,#254);
#212=AXIS2_PLACEMENT_3D('',#322,#255,#256);
#213=AXIS2_PLACEMENT_3D('',#324,#257,#258);
#214=AXIS2_PLACEMENT_3D('',#326,#260,#261);
#215=AXIS2_PLACEMENT_3D('',#328,#262,#263);
#216=AXIS2_PLACEMENT_3D('',#330,#265,#266);
#217=AXIS2_PLACEMENT_3D('',#332,#267,#268);
#218=AXIS2_PLACEMENT_3D('',#333,#269,#270);
#219=AXIS2_PLACEMENT_3D('',#336,#271,#272);
#220=AXIS2_PLACEMENT_3D('',#337,#273,#274);
#221=AXIS2_PLACEMENT_3D('',#338,#275,#276);
#222=AXIS2_PLACEMENT_3D('',#339,#277,#278);
#223=AXIS2_PLACEMENT_3D('',#342,#279,#280);
#224=AXIS2_PLACEMENT_3D('',#344,#282,#283);
#225=AXIS2_PLACEMENT_3D('',#345,#284,#285);
#226=AXIS2_PLACEMENT_3D('',#348,#286,#287);
#227=AXIS2_PLACEMENT_3D('',#349,#288,#289);
#228=AXIS2_PLACEMENT_3D('',#350,#290,#291);
#229=AXIS2_PLACEMENT_3D('',#351,#292,#293);
#230=AXIS2_PLACEMENT_3D('',#353,#294,#295);
#231=AXIS2_PLACEMENT_3D('',#355,#297,#298);
#232=AXIS2_PLACEMENT_3D('',#356,#299,#300);
#233=AXIS2_PLACEMENT_3D('',#358,#301,#302);
#234=AXIS2_PLACEMENT_3D('',#359,#303,#304);
#235=AXIS2_PLACEMENT_3D('',#361,#306,#307);
#236=DIRECTION('axis',(0.,0.,1.));
#237=DIRECTION('refdir',(1.,0.,0.));
#238=DIRECTION('axis',(0.,0.,1.));
#239=DIRECTION('refdir',(1.,0.,0.));
#240=DIRECTION('center_axis',(-1.,0.,0.));
#241=DIRECTION('ref_axis',(0.,0.,1.));
#242=DIRECTION('center_axis',(1.,0.,0.));
#243=DIRECTION('ref_axis',(0.,0.,-1.));
#244=DIRECTION('center_axis',(1.,0.,0.));
#245=DIRECTION('ref_axis',(0.,0.,-1.));
#246=DIRECTION('center_axis',(1.,0.,0.));
#247=DIRECTION('ref_axis',(0.,1.,0.));
#248=DIRECTION('center_axis',(1.,0.,0.));
#249=DIRECTION('ref_axis',(0.,0.,-1.));
#250=DIRECTION('',(-1.,0.,0.));
#251=DIRECTION('center_axis',(-1.,0.,0.));
#252=DIRECTION('ref_axis',(0.,0.,1.));
#253=DIRECTION('center_axis',(1.,0.,0.));
#254=DIRECTION('ref_axis',(0.,0.,-1.));
#255=DIRECTION('center_axis',(1.,0.,0.));
#256=DIRECTION('ref_axis',(0.,1.,0.));
#257=DIRECTION('center_axis',(1.,0.,0.));
#258=DIRECTION('ref_axis',(0.,0.,-1.));
#259=DIRECTION('',(-0.707106781186549,0.707106781186546,8.65956056235491E-17));
#260=DIRECTION('center_axis',(1.,0.,0.));
#261=DIRECTION('ref_axis',(0.,1.,0.));
#262=DIRECTION('center_axis',(1.,0.,0.));
#263=DIRECTION('ref_axis',(0.,0.,-1.));
#264=DIRECTION('',(-1.,0.,0.));
#265=DIRECTION('center_axis',(-1.,0.,0.));
#266=DIRECTION('ref_axis',(0.,0.,1.));
#267=DIRECTION('center_axis',(1.,0.,0.));
#268=DIRECTION('ref_axis',(0.,0.,-1.));
#269=DIRECTION('center_axis',(1.,0.,0.));
#270=DIRECTION('ref_axis',(0.,0.,-1.));
#271=DIRECTION('center_axis',(1.,0.,0.));
#272=DIRECTION('ref_axis',(0.,0.,-1.));
#273=DIRECTION('center_axis',(1.,0.,0.));
#274=DIRECTION('ref_axis',(0.,0.,-1.));
#275=DIRECTION('center_axis',(0.,-1.,-1.22464679914735E-16));
#276=DIRECTION('ref_axis',(0.,-1.22464679914735E-16,1.));
#277=DIRECTION('center_axis',(1.,0.,0.));
#278=DIRECTION('ref_axis',(0.,1.,0.));
#279=DIRECTION('center_axis',(1.,0.,0.));
#280=DIRECTION('ref_axis',(0.,0.,-1.));
#281=DIRECTION('',(-1.,0.,0.));
#282=DIRECTION('center_axis',(1.,0.,0.));
#283=DIRECTION('ref_axis',(0.,0.,-1.));
#284=DIRECTION('center_axis',(1.,0.,0.));
#285=DIRECTION('ref_axis',(0.,0.,-1.));
#286=DIRECTION('center_axis',(1.,0.,0.));
#287=DIRECTION('ref_axis',(0.,0.,-1.));
#288=DIRECTION('center_axis',(1.,0.,0.));
#289=DIRECTION('ref_axis',(0.,0.,-1.));
#290=DIRECTION('center_axis',(0.,-1.,-1.22464679914735E-16));
#291=DIRECTION('ref_axis',(0.,-1.22464679914735E-16,1.));
#292=DIRECTION('center_axis',(-1.,0.,0.));
#293=DIRECTION('ref_axis',(0.,1.,0.));
#294=DIRECTION('center_axis',(1.,0.,0.));
#295=DIRECTION('ref_axis',(0.,0.,-1.));
#296=DIRECTION('',(-0.342020143325668,-0.939692620785909,-1.15079156022785E-16));
#297=DIRECTION('center_axis',(1.,0.,0.));
#298=DIRECTION('ref_axis',(0.,0.,-1.));
#299=DIRECTION('center_axis',(-1.,0.,0.));
#300=DIRECTION('ref_axis',(0.,0.,1.));
#301=DIRECTION('center_axis',(1.,0.,0.));
#302=DIRECTION('ref_axis',(0.,0.,-1.));
#303=DIRECTION('center_axis',(1.,0.,0.));
#304=DIRECTION('ref_axis',(0.,1.,0.));
#305=DIRECTION('',(-0.874157276121537,0.485642931178633,5.94741061196451E-17));
#306=DIRECTION('',(0.,0.,1.));
#307=DIRECTION('',(1.,0.,0.));
#308=CARTESIAN_POINT('',(0.,0.,0.));
#309=CARTESIAN_POINT('',(0.,0.,0.));
#310=CARTESIAN_POINT('Origin',(-14.65,15.,0.));
#311=CARTESIAN_POINT('',(-14.65,-15.,-1.83697019872103E-15));
#312=CARTESIAN_POINT('Origin',(-14.65,0.,0.));
#313=CARTESIAN_POINT('',(-14.65,-13.5,-1.65327317884893E-15));
#314=CARTESIAN_POINT('Origin',(-14.65,0.,0.));
#315=CARTESIAN_POINT('Origin',(-12.95,0.,0.));
#316=CARTESIAN_POINT('',(-11.25,-15.,-1.83697019872103E-15));
#317=CARTESIAN_POINT('Origin',(-11.25,0.,0.));
#318=CARTESIAN_POINT('',(-12.95,-15.,-1.83697019872103E-15));
#319=CARTESIAN_POINT('Origin',(-11.25,20.5,0.));
#320=CARTESIAN_POINT('',(-11.25,-20.5,-2.51052593825207E-15));
#321=CARTESIAN_POINT('Origin',(-11.25,0.,0.));
#322=CARTESIAN_POINT('Origin',(-11.,0.,0.));
#323=CARTESIAN_POINT('',(-10.75,-21.,-2.57175827820944E-15));
#324=CARTESIAN_POINT('Origin',(-10.75,0.,0.));
#325=CARTESIAN_POINT('',(-11.,-20.75,-2.54114210823076E-15));
#326=CARTESIAN_POINT('Origin',(-6.25,0.,0.));
#327=CARTESIAN_POINT('',(-1.75,-21.,-2.57175827820944E-15));
#328=CARTESIAN_POINT('Origin',(-1.75,0.,0.));
#329=CARTESIAN_POINT('',(-6.25,-21.,-2.57175827820944E-15));
#330=CARTESIAN_POINT('Origin',(-1.75,29.,0.));
#331=CARTESIAN_POINT('',(-1.75,-3.55147571752732E-15,29.));
#332=CARTESIAN_POINT('Origin',(-1.75,0.,0.));
#333=CARTESIAN_POINT('Origin',(0.249999999999999,0.,0.));
#334=CARTESIAN_POINT('',(0.249999999999999,-31.,-3.7964050773568E-15));
#335=CARTESIAN_POINT('',(0.249999999999999,-3.7964050773568E-15,31.));
#336=CARTESIAN_POINT('Origin',(0.249999999999999,0.,0.));
#337=CARTESIAN_POINT('Origin',(0.249999999999999,0.,0.));
#338=CARTESIAN_POINT('Origin',(0.249999999999999,-3.55147571752732E-15,
29.));
#339=CARTESIAN_POINT('Origin',(7.08955745544875,0.,0.));
#340=CARTESIAN_POINT('',(13.9291149108975,-31.,-3.7964050773568E-15));
#341=CARTESIAN_POINT('',(13.9291149108975,-3.7964050773568E-15,31.));
#342=CARTESIAN_POINT('Origin',(13.9291149108975,0.,0.));
#343=CARTESIAN_POINT('',(7.08955745544875,-31.,-3.7964050773568E-15));
#344=CARTESIAN_POINT('Origin',(13.9291149108975,0.,0.));
#345=CARTESIAN_POINT('Origin',(13.9291149108975,0.,0.));
#346=CARTESIAN_POINT('',(16.7481927732552,-29.026060429977,-3.5546671997429E-15));
#347=CARTESIAN_POINT('',(16.7481927732552,-3.5546671997429E-15,29.026060429977));
#348=CARTESIAN_POINT('Origin',(16.7481927732552,0.,0.));
#349=CARTESIAN_POINT('Origin',(16.7481927732552,0.,0.));
#350=CARTESIAN_POINT('Origin',(13.9291149108975,-3.42901103761259E-15,28.));
#351=CARTESIAN_POINT('Origin',(17.4990963866276,0.,0.));
#352=CARTESIAN_POINT('',(18.25,-24.899878986122,-3.04935570995107E-15));
#353=CARTESIAN_POINT('Origin',(18.25,0.,0.));
#354=CARTESIAN_POINT('',(17.4990963866276,-26.9629697080495,-3.30201145484698E-15));
#355=CARTESIAN_POINT('Origin',(18.25,0.,0.));
#356=CARTESIAN_POINT('Origin',(-18.25,11.5,0.));
#357=CARTESIAN_POINT('',(-18.25,-11.5,-1.40834381901946E-15));
#358=CARTESIAN_POINT('Origin',(-18.25,0.,0.));
#359=CARTESIAN_POINT('Origin',(-16.45,0.,0.));
#360=CARTESIAN_POINT('',(-16.45,-12.5,-1.53080849893419E-15));
#361=CARTESIAN_POINT('',(0.,0.,0.));
#362=UNCERTAINTY_MEASURE_WITH_UNIT(LENGTH_MEASURE(0.01),#368,
'DISTANCE_ACCURACY_VALUE',
'Maximum model space distance between geometric entities at asserted c
onnectivities');
#363=UNCERTAINTY_MEASURE_WITH_UNIT(LENGTH_MEASURE(0.01),#368,
'DISTANCE_ACCURACY_VALUE',
'Maximum model space distance between geometric entities at asserted c
onnectivities');
#364=UNCERTAINTY_MEASURE_WITH_UNIT(LENGTH_MEASURE(0.01),#368,
'DISTANCE_ACCURACY_VALUE',
'Maximum model space distance between geometric entities at asserted c
onnectivities');
#365=(
GEOMETRIC_REPRESENTATION_CONTEXT(3)
GLOBAL_UNCERTAINTY_ASSIGNED_CONTEXT((#362))
GLOBAL_UNIT_ASSIGNED_CONTEXT((#368,#370,#371))
REPRESENTATION_CONTEXT('','3D')
);
#366=(
GEOMETRIC_REPRESENTATION_CONTEXT(3)
GLOBAL_UNCERTAINTY_ASSIGNED_CONTEXT((#363))
GLOBAL_UNIT_ASSIGNED_CONTEXT((#368,#370,#371))
REPRESENTATION_CONTEXT('','3D')
);
#367=(
GEOMETRIC_REPRESENTATION_CONTEXT(3)
GLOBAL_UNCERTAINTY_ASSIGNED_CONTEXT((#364))
GLOBAL_UNIT_ASSIGNED_CONTEXT((#368,#370,#371))
REPRESENTATION_CONTEXT('','3D')
);
#368=(
LENGTH_UNIT()
NAMED_UNIT(*)
SI_UNIT(.MILLI.,.METRE.)
);
#369=(
LENGTH_UNIT()
NAMED_UNIT(*)
SI_UNIT($,.METRE.)
);
#370=(
NAMED_UNIT(*)
PLANE_ANGLE_UNIT()
SI_UNIT($,.RADIAN.)
);
#371=(
NAMED_UNIT(*)
SI_UNIT($,.STERADIAN.)
SOLID_ANGLE_UNIT()
);
#372=SHAPE_DEFINITION_REPRESENTATION(#374,#377);
#373=SHAPE_DEFINITION_REPRESENTATION(#375,#378);
#374=PRODUCT_DEFINITION_SHAPE('',$,#380);
#375=PRODUCT_DEFINITION_SHAPE('',$,#381);
#376=PRODUCT_DEFINITION_SHAPE($,$,#14);
#377=SHAPE_REPRESENTATION('',(#203,#235),#365);
#378=SHAPE_REPRESENTATION('',(#204),#366);
#379=PRODUCT_DEFINITION_CONTEXT('part definition',#387,'design');
#380=PRODUCT_DEFINITION('2-2062_EXPORT','2-2062_EXPORT v3',#382,#379);
#381=PRODUCT_DEFINITION('EBL-2-2062','EBL-2-2062',#383,#379);
#382=PRODUCT_DEFINITION_FORMATION('',$,#389);
#383=PRODUCT_DEFINITION_FORMATION('',$,#390);
#384=PRODUCT_RELATED_PRODUCT_CATEGORY('2-2062_EXPORT v3',
'2-2062_EXPORT v3',(#389));
#385=PRODUCT_RELATED_PRODUCT_CATEGORY('EBL-2-2062','EBL-2-2062',(#390));
#386=APPLICATION_PROTOCOL_DEFINITION('international standard',
'automotive_design',2009,#387);
#387=APPLICATION_CONTEXT(
'Core Data for Automotive Mechanical Design Process');
#388=PRODUCT_CONTEXT('part definition',#387,'mechanical');
#389=PRODUCT('2-2062_EXPORT','2-2062_EXPORT v3',$,(#388));
#390=PRODUCT('EBL-2-2062','EBL-2-2062',$,(#388));
#391=PRESENTATION_STYLE_ASSIGNMENT((#392));
#392=SURFACE_STYLE_USAGE(.BOTH.,#393);
#393=SURFACE_SIDE_STYLE('',(#394));
#394=SURFACE_STYLE_FILL_AREA(#395);
#395=FILL_AREA_STYLE('Steel - Satin',(#396));
#396=FILL_AREA_STYLE_COLOUR('Steel - Satin',#397);
#397=COLOUR_RGB('Steel - Satin',0.627450980392157,0.627450980392157,0.627450980392157);
ENDSEC;
END-ISO-10303-21;
