ISO-10303-21;
HEADER;
/* Generated by software containing ST-Developer
 * from STEP Tools, Inc. (www.steptools.com) 
 */

FILE_DESCRIPTION(
/* description */ (''),
/* implementation_level */ '2;1');

FILE_NAME(
/* name */ '2-2052 v2.step',
/* time_stamp */ '2023-05-31T14:56:51+01:00',
/* author */ (''),
/* organization */ (''),
/* preprocessor_version */ 'ST-DEVELOPER v19.2',
/* originating_system */ 'Autodesk Translation Framework v12.4.0.73',
/* authorisation */ '');

FILE_SCHEMA (('AUTOMOTIVE_DESIGN { 1 0 10303 214 3 1 1 }'));
ENDSEC;

DATA;
#10=MECHANICAL_DESIGN_GEOMETRIC_PRESENTATION_REPRESENTATION('',(#13),#343);
#11=SHAPE_REPRESENTATION_RELATIONSHIP('SRR','None',#350,#12);
#12=ADVANCED_BREP_SHAPE_REPRESENTATION('',(#14),#342);
#13=STYLED_ITEM('',(#359),#14);
#14=MANIFOLD_SOLID_BREP('Body1',#181);
#15=TOROIDAL_SURFACE('',#215,24.75,1.5);
#16=TOROIDAL_SURFACE('',#222,24.75,1.5);
#17=CONICAL_SURFACE('',#203,13.4,0.785398163397448);
#18=CONICAL_SURFACE('',#209,19.75,0.785398163397447);
#19=LINE('',#299,#25);
#20=LINE('',#307,#26);
#21=LINE('',#311,#27);
#22=LINE('',#318,#28);
#23=LINE('',#322,#29);
#24=LINE('',#336,#30);
#25=VECTOR('',#236,14.);
#26=VECTOR('',#247,13.4);
#27=VECTOR('',#252,15.);
#28=VECTOR('',#261,19.75);
#29=VECTOR('',#266,20.);
#30=VECTOR('',#283,26.25);
#31=CYLINDRICAL_SURFACE('',#198,14.);
#32=CYLINDRICAL_SURFACE('',#205,15.);
#33=CYLINDRICAL_SURFACE('',#211,20.);
#34=CYLINDRICAL_SURFACE('',#219,26.25);
#35=FACE_BOUND('',#52,.T.);
#36=FACE_BOUND('',#59,.T.);
#37=FACE_BOUND('',#63,.T.);
#38=FACE_OUTER_BOUND('',#51,.T.);
#39=FACE_OUTER_BOUND('',#53,.T.);
#40=FACE_OUTER_BOUND('',#54,.T.);
#41=FACE_OUTER_BOUND('',#55,.T.);
#42=FACE_OUTER_BOUND('',#56,.T.);
#43=FACE_OUTER_BOUND('',#57,.T.);
#44=FACE_OUTER_BOUND('',#58,.T.);
#45=FACE_OUTER_BOUND('',#60,.T.);
#46=FACE_OUTER_BOUND('',#61,.T.);
#47=FACE_OUTER_BOUND('',#62,.T.);
#48=FACE_OUTER_BOUND('',#64,.T.);
#49=FACE_OUTER_BOUND('',#65,.T.);
#50=FACE_OUTER_BOUND('',#66,.T.);
#51=EDGE_LOOP('',(#119));
#52=EDGE_LOOP('',(#120));
#53=EDGE_LOOP('',(#121,#122,#123,#124));
#54=EDGE_LOOP('',(#125));
#55=EDGE_LOOP('',(#126));
#56=EDGE_LOOP('',(#127,#128,#129,#130));
#57=EDGE_LOOP('',(#131,#132,#133,#134));
#58=EDGE_LOOP('',(#135));
#59=EDGE_LOOP('',(#136));
#60=EDGE_LOOP('',(#137,#138,#139,#140));
#61=EDGE_LOOP('',(#141,#142,#143,#144));
#62=EDGE_LOOP('',(#145));
#63=EDGE_LOOP('',(#146));
#64=EDGE_LOOP('',(#147,#148,#149,#150,#151));
#65=EDGE_LOOP('',(#152,#153,#154,#155,#156,#157));
#66=EDGE_LOOP('',(#158,#159,#160,#161,#162));
#67=CIRCLE('',#196,24.75);
#68=CIRCLE('',#197,14.);
#69=CIRCLE('',#199,14.);
#70=CIRCLE('',#202,11.8);
#71=CIRCLE('',#204,15.);
#72=CIRCLE('',#206,15.);
#73=CIRCLE('',#208,19.5);
#74=CIRCLE('',#210,20.);
#75=CIRCLE('',#212,20.);
#76=CIRCLE('',#214,24.75);
#77=CIRCLE('',#216,26.25);
#78=CIRCLE('',#217,26.25);
#79=CIRCLE('',#218,1.5);
#80=CIRCLE('',#220,26.25);
#81=CIRCLE('',#221,26.25);
#82=CIRCLE('',#223,1.5);
#83=VERTEX_POINT('',#292);
#84=VERTEX_POINT('',#294);
#85=VERTEX_POINT('',#297);
#86=VERTEX_POINT('',#302);
#87=VERTEX_POINT('',#305);
#88=VERTEX_POINT('',#309);
#89=VERTEX_POINT('',#313);
#90=VERTEX_POINT('',#316);
#91=VERTEX_POINT('',#320);
#92=VERTEX_POINT('',#324);
#93=VERTEX_POINT('',#327);
#94=VERTEX_POINT('',#328);
#95=VERTEX_POINT('',#333);
#96=VERTEX_POINT('',#334);
#97=EDGE_CURVE('',#83,#83,#67,.T.);
#98=EDGE_CURVE('',#84,#84,#68,.T.);
#99=EDGE_CURVE('',#85,#85,#69,.T.);
#100=EDGE_CURVE('',#85,#84,#19,.T.);
#101=EDGE_CURVE('',#86,#86,#70,.T.);
#102=EDGE_CURVE('',#87,#87,#71,.T.);
#103=EDGE_CURVE('',#87,#86,#20,.T.);
#104=EDGE_CURVE('',#88,#88,#72,.T.);
#105=EDGE_CURVE('',#88,#87,#21,.T.);
#106=EDGE_CURVE('',#89,#89,#73,.T.);
#107=EDGE_CURVE('',#90,#90,#74,.T.);
#108=EDGE_CURVE('',#90,#89,#22,.T.);
#109=EDGE_CURVE('',#91,#91,#75,.T.);
#110=EDGE_CURVE('',#91,#90,#23,.T.);
#111=EDGE_CURVE('',#92,#92,#76,.T.);
#112=EDGE_CURVE('',#93,#94,#77,.T.);
#113=EDGE_CURVE('',#94,#93,#78,.T.);
#114=EDGE_CURVE('',#94,#92,#79,.T.);
#115=EDGE_CURVE('',#95,#96,#80,.T.);
#116=EDGE_CURVE('',#95,#93,#24,.T.);
#117=EDGE_CURVE('',#96,#95,#81,.T.);
#118=EDGE_CURVE('',#83,#96,#82,.T.);
#119=ORIENTED_EDGE('',*,*,#97,.T.);
#120=ORIENTED_EDGE('',*,*,#98,.F.);
#121=ORIENTED_EDGE('',*,*,#99,.F.);
#122=ORIENTED_EDGE('',*,*,#100,.T.);
#123=ORIENTED_EDGE('',*,*,#98,.T.);
#124=ORIENTED_EDGE('',*,*,#100,.F.);
#125=ORIENTED_EDGE('',*,*,#99,.T.);
#126=ORIENTED_EDGE('',*,*,#101,.F.);
#127=ORIENTED_EDGE('',*,*,#102,.F.);
#128=ORIENTED_EDGE('',*,*,#103,.T.);
#129=ORIENTED_EDGE('',*,*,#101,.T.);
#130=ORIENTED_EDGE('',*,*,#103,.F.);
#131=ORIENTED_EDGE('',*,*,#104,.F.);
#132=ORIENTED_EDGE('',*,*,#105,.T.);
#133=ORIENTED_EDGE('',*,*,#102,.T.);
#134=ORIENTED_EDGE('',*,*,#105,.F.);
#135=ORIENTED_EDGE('',*,*,#106,.F.);
#136=ORIENTED_EDGE('',*,*,#104,.T.);
#137=ORIENTED_EDGE('',*,*,#107,.F.);
#138=ORIENTED_EDGE('',*,*,#108,.T.);
#139=ORIENTED_EDGE('',*,*,#106,.T.);
#140=ORIENTED_EDGE('',*,*,#108,.F.);
#141=ORIENTED_EDGE('',*,*,#109,.F.);
#142=ORIENTED_EDGE('',*,*,#110,.T.);
#143=ORIENTED_EDGE('',*,*,#107,.T.);
#144=ORIENTED_EDGE('',*,*,#110,.F.);
#145=ORIENTED_EDGE('',*,*,#111,.F.);
#146=ORIENTED_EDGE('',*,*,#109,.T.);
#147=ORIENTED_EDGE('',*,*,#112,.F.);
#148=ORIENTED_EDGE('',*,*,#113,.F.);
#149=ORIENTED_EDGE('',*,*,#114,.T.);
#150=ORIENTED_EDGE('',*,*,#111,.T.);
#151=ORIENTED_EDGE('',*,*,#114,.F.);
#152=ORIENTED_EDGE('',*,*,#115,.F.);
#153=ORIENTED_EDGE('',*,*,#116,.T.);
#154=ORIENTED_EDGE('',*,*,#112,.T.);
#155=ORIENTED_EDGE('',*,*,#113,.T.);
#156=ORIENTED_EDGE('',*,*,#116,.F.);
#157=ORIENTED_EDGE('',*,*,#117,.F.);
#158=ORIENTED_EDGE('',*,*,#97,.F.);
#159=ORIENTED_EDGE('',*,*,#118,.T.);
#160=ORIENTED_EDGE('',*,*,#117,.T.);
#161=ORIENTED_EDGE('',*,*,#115,.T.);
#162=ORIENTED_EDGE('',*,*,#118,.F.);
#163=PLANE('',#195);
#164=PLANE('',#200);
#165=PLANE('',#201);
#166=PLANE('',#207);
#167=PLANE('',#213);
#168=ADVANCED_FACE('',(#38,#35),#163,.T.);
#169=ADVANCED_FACE('',(#39),#31,.T.);
#170=ADVANCED_FACE('',(#40),#164,.T.);
#171=ADVANCED_FACE('',(#41),#165,.T.);
#172=ADVANCED_FACE('',(#42),#17,.T.);
#173=ADVANCED_FACE('',(#43),#32,.T.);
#174=ADVANCED_FACE('',(#44,#36),#166,.T.);
#175=ADVANCED_FACE('',(#45),#18,.T.);
#176=ADVANCED_FACE('',(#46),#33,.T.);
#177=ADVANCED_FACE('',(#47,#37),#167,.T.);
#178=ADVANCED_FACE('',(#48),#15,.T.);
#179=ADVANCED_FACE('',(#49),#34,.T.);
#180=ADVANCED_FACE('',(#50),#16,.T.);
#181=CLOSED_SHELL('',(#168,#169,#170,#171,#172,#173,#174,#175,#176,#177,
#178,#179,#180));
#182=DERIVED_UNIT_ELEMENT(#184,1.);
#183=DERIVED_UNIT_ELEMENT(#345,-3.);
#184=(
MASS_UNIT()
NAMED_UNIT(*)
SI_UNIT(.KILO.,.GRAM.)
);
#185=DERIVED_UNIT((#182,#183));
#186=MEASURE_REPRESENTATION_ITEM('density measure',
POSITIVE_RATIO_MEASURE(7850.),#185);
#187=PROPERTY_DEFINITION_REPRESENTATION(#192,#189);
#188=PROPERTY_DEFINITION_REPRESENTATION(#193,#190);
#189=REPRESENTATION('material name',(#191),#342);
#190=REPRESENTATION('density',(#186),#342);
#191=DESCRIPTIVE_REPRESENTATION_ITEM('Steel','Steel');
#192=PROPERTY_DEFINITION('material property','material name',#352);
#193=PROPERTY_DEFINITION('material property','density of part',#352);
#194=AXIS2_PLACEMENT_3D('',#290,#224,#225);
#195=AXIS2_PLACEMENT_3D('',#291,#226,#227);
#196=AXIS2_PLACEMENT_3D('',#293,#228,#229);
#197=AXIS2_PLACEMENT_3D('',#295,#230,#231);
#198=AXIS2_PLACEMENT_3D('',#296,#232,#233);
#199=AXIS2_PLACEMENT_3D('',#298,#234,#235);
#200=AXIS2_PLACEMENT_3D('',#300,#237,#238);
#201=AXIS2_PLACEMENT_3D('',#301,#239,#240);
#202=AXIS2_PLACEMENT_3D('',#303,#241,#242);
#203=AXIS2_PLACEMENT_3D('',#304,#243,#244);
#204=AXIS2_PLACEMENT_3D('',#306,#245,#246);
#205=AXIS2_PLACEMENT_3D('',#308,#248,#249);
#206=AXIS2_PLACEMENT_3D('',#310,#250,#251);
#207=AXIS2_PLACEMENT_3D('',#312,#253,#254);
#208=AXIS2_PLACEMENT_3D('',#314,#255,#256);
#209=AXIS2_PLACEMENT_3D('',#315,#257,#258);
#210=AXIS2_PLACEMENT_3D('',#317,#259,#260);
#211=AXIS2_PLACEMENT_3D('',#319,#262,#263);
#212=AXIS2_PLACEMENT_3D('',#321,#264,#265);
#213=AXIS2_PLACEMENT_3D('',#323,#267,#268);
#214=AXIS2_PLACEMENT_3D('',#325,#269,#270);
#215=AXIS2_PLACEMENT_3D('',#326,#271,#272);
#216=AXIS2_PLACEMENT_3D('',#329,#273,#274);
#217=AXIS2_PLACEMENT_3D('',#330,#275,#276);
#218=AXIS2_PLACEMENT_3D('',#331,#277,#278);
#219=AXIS2_PLACEMENT_3D('',#332,#279,#280);
#220=AXIS2_PLACEMENT_3D('',#335,#281,#282);
#221=AXIS2_PLACEMENT_3D('',#337,#284,#285);
#222=AXIS2_PLACEMENT_3D('',#338,#286,#287);
#223=AXIS2_PLACEMENT_3D('',#339,#288,#289);
#224=DIRECTION('axis',(0.,0.,1.));
#225=DIRECTION('refdir',(1.,0.,0.));
#226=DIRECTION('center_axis',(1.,0.,0.));
#227=DIRECTION('ref_axis',(0.,0.,-1.));
#228=DIRECTION('center_axis',(1.,0.,0.));
#229=DIRECTION('ref_axis',(0.,0.,-1.));
#230=DIRECTION('center_axis',(1.,0.,0.));
#231=DIRECTION('ref_axis',(0.,0.,-1.));
#232=DIRECTION('center_axis',(1.,0.,0.));
#233=DIRECTION('ref_axis',(0.,1.,0.));
#234=DIRECTION('center_axis',(1.,0.,0.));
#235=DIRECTION('ref_axis',(0.,0.,-1.));
#236=DIRECTION('',(-1.,0.,0.));
#237=DIRECTION('center_axis',(1.,0.,0.));
#238=DIRECTION('ref_axis',(0.,0.,-1.));
#239=DIRECTION('center_axis',(-1.,0.,0.));
#240=DIRECTION('ref_axis',(0.,0.,1.));
#241=DIRECTION('center_axis',(1.,0.,0.));
#242=DIRECTION('ref_axis',(0.,0.,-1.));
#243=DIRECTION('center_axis',(1.,0.,0.));
#244=DIRECTION('ref_axis',(0.,1.,0.));
#245=DIRECTION('center_axis',(1.,0.,0.));
#246=DIRECTION('ref_axis',(0.,0.,-1.));
#247=DIRECTION('',(-0.707106781186548,0.707106781186547,8.65956056235493E-17));
#248=DIRECTION('center_axis',(1.,0.,0.));
#249=DIRECTION('ref_axis',(0.,1.,0.));
#250=DIRECTION('center_axis',(1.,0.,0.));
#251=DIRECTION('ref_axis',(0.,0.,-1.));
#252=DIRECTION('',(-1.,0.,0.));
#253=DIRECTION('center_axis',(-1.,0.,0.));
#254=DIRECTION('ref_axis',(0.,0.,1.));
#255=DIRECTION('center_axis',(1.,0.,0.));
#256=DIRECTION('ref_axis',(0.,0.,-1.));
#257=DIRECTION('center_axis',(1.,0.,0.));
#258=DIRECTION('ref_axis',(0.,1.,0.));
#259=DIRECTION('center_axis',(1.,0.,0.));
#260=DIRECTION('ref_axis',(0.,0.,-1.));
#261=DIRECTION('',(-0.707106781186549,0.707106781186546,8.65956056235492E-17));
#262=DIRECTION('center_axis',(1.,0.,0.));
#263=DIRECTION('ref_axis',(0.,1.,0.));
#264=DIRECTION('center_axis',(1.,0.,0.));
#265=DIRECTION('ref_axis',(0.,0.,-1.));
#266=DIRECTION('',(-1.,0.,0.));
#267=DIRECTION('center_axis',(-1.,0.,0.));
#268=DIRECTION('ref_axis',(0.,0.,1.));
#269=DIRECTION('center_axis',(1.,0.,0.));
#270=DIRECTION('ref_axis',(0.,0.,-1.));
#271=DIRECTION('center_axis',(1.,0.,0.));
#272=DIRECTION('ref_axis',(0.,0.,-1.));
#273=DIRECTION('center_axis',(1.,0.,0.));
#274=DIRECTION('ref_axis',(0.,0.,-1.));
#275=DIRECTION('center_axis',(1.,0.,0.));
#276=DIRECTION('ref_axis',(0.,0.,-1.));
#277=DIRECTION('center_axis',(0.,-1.,-1.22464679914735E-16));
#278=DIRECTION('ref_axis',(0.,-1.22464679914735E-16,1.));
#279=DIRECTION('center_axis',(1.,0.,0.));
#280=DIRECTION('ref_axis',(0.,1.,0.));
#281=DIRECTION('center_axis',(1.,0.,0.));
#282=DIRECTION('ref_axis',(0.,0.,-1.));
#283=DIRECTION('',(-1.,0.,0.));
#284=DIRECTION('center_axis',(1.,0.,0.));
#285=DIRECTION('ref_axis',(0.,0.,-1.));
#286=DIRECTION('center_axis',(1.,0.,0.));
#287=DIRECTION('ref_axis',(0.,0.,-1.));
#288=DIRECTION('center_axis',(0.,-1.,-1.22464679914735E-16));
#289=DIRECTION('ref_axis',(0.,-1.22464679914735E-16,1.));
#290=CARTESIAN_POINT('',(0.,0.,0.));
#291=CARTESIAN_POINT('Origin',(17.,14.,0.));
#292=CARTESIAN_POINT('',(17.,-3.0310008278897E-15,24.75));
#293=CARTESIAN_POINT('Origin',(17.,0.,0.));
#294=CARTESIAN_POINT('',(17.,-14.,-1.71450551880629E-15));
#295=CARTESIAN_POINT('Origin',(17.,0.,0.));
#296=CARTESIAN_POINT('Origin',(18.5,0.,0.));
#297=CARTESIAN_POINT('',(20.,-14.,-1.71450551880629E-15));
#298=CARTESIAN_POINT('Origin',(20.,0.,0.));
#299=CARTESIAN_POINT('',(18.5,-14.,-1.71450551880629E-15));
#300=CARTESIAN_POINT('Origin',(20.,0.,0.));
#301=CARTESIAN_POINT('Origin',(-11.,11.8,0.));
#302=CARTESIAN_POINT('',(-11.,-11.8,-1.44508322299388E-15));
#303=CARTESIAN_POINT('Origin',(-11.,0.,0.));
#304=CARTESIAN_POINT('Origin',(-9.4,0.,0.));
#305=CARTESIAN_POINT('',(-7.8,-15.,-1.83697019872103E-15));
#306=CARTESIAN_POINT('Origin',(-7.8,0.,0.));
#307=CARTESIAN_POINT('',(-9.4,-13.4,-1.64102671085745E-15));
#308=CARTESIAN_POINT('Origin',(-6.4,0.,0.));
#309=CARTESIAN_POINT('',(-5.,-15.,-1.83697019872103E-15));
#310=CARTESIAN_POINT('Origin',(-5.,0.,0.));
#311=CARTESIAN_POINT('',(-6.4,-15.,-1.83697019872103E-15));
#312=CARTESIAN_POINT('Origin',(-5.,19.5,0.));
#313=CARTESIAN_POINT('',(-5.,-19.5,-2.38806125833734E-15));
#314=CARTESIAN_POINT('Origin',(-5.,0.,0.));
#315=CARTESIAN_POINT('Origin',(-4.75,0.,0.));
#316=CARTESIAN_POINT('',(-4.5,-20.,-2.44929359829471E-15));
#317=CARTESIAN_POINT('Origin',(-4.5,0.,0.));
#318=CARTESIAN_POINT('',(-4.75,-19.75,-2.41867742831602E-15));
#319=CARTESIAN_POINT('Origin',(-2.25,0.,0.));
#320=CARTESIAN_POINT('',(0.,-20.,-2.44929359829471E-15));
#321=CARTESIAN_POINT('Origin',(0.,0.,0.));
#322=CARTESIAN_POINT('',(-2.25,-20.,-2.44929359829471E-15));
#323=CARTESIAN_POINT('Origin',(0.,24.75,0.));
#324=CARTESIAN_POINT('',(0.,-3.0310008278897E-15,24.75));
#325=CARTESIAN_POINT('Origin',(0.,0.,0.));
#326=CARTESIAN_POINT('Origin',(1.5,0.,0.));
#327=CARTESIAN_POINT('',(1.5,-26.25,-3.2146978477618E-15));
#328=CARTESIAN_POINT('',(1.5,-3.2146978477618E-15,26.25));
#329=CARTESIAN_POINT('Origin',(1.5,0.,0.));
#330=CARTESIAN_POINT('Origin',(1.5,0.,0.));
#331=CARTESIAN_POINT('Origin',(1.5,-3.0310008278897E-15,24.75));
#332=CARTESIAN_POINT('Origin',(8.5,0.,0.));
#333=CARTESIAN_POINT('',(15.5,-26.25,-3.2146978477618E-15));
#334=CARTESIAN_POINT('',(15.5,-3.2146978477618E-15,26.25));
#335=CARTESIAN_POINT('Origin',(15.5,0.,0.));
#336=CARTESIAN_POINT('',(8.5,-26.25,-3.2146978477618E-15));
#337=CARTESIAN_POINT('Origin',(15.5,0.,0.));
#338=CARTESIAN_POINT('Origin',(15.5,0.,0.));
#339=CARTESIAN_POINT('Origin',(15.5,-3.0310008278897E-15,24.75));
#340=UNCERTAINTY_MEASURE_WITH_UNIT(LENGTH_MEASURE(0.01),#344,
'DISTANCE_ACCURACY_VALUE',
'Maximum model space distance between geometric entities at asserted c
onnectivities');
#341=UNCERTAINTY_MEASURE_WITH_UNIT(LENGTH_MEASURE(0.01),#344,
'DISTANCE_ACCURACY_VALUE',
'Maximum model space distance between geometric entities at asserted c
onnectivities');
#342=(
GEOMETRIC_REPRESENTATION_CONTEXT(3)
GLOBAL_UNCERTAINTY_ASSIGNED_CONTEXT((#340))
GLOBAL_UNIT_ASSIGNED_CONTEXT((#344,#346,#347))
REPRESENTATION_CONTEXT('','3D')
);
#343=(
GEOMETRIC_REPRESENTATION_CONTEXT(3)
GLOBAL_UNCERTAINTY_ASSIGNED_CONTEXT((#341))
GLOBAL_UNIT_ASSIGNED_CONTEXT((#344,#346,#347))
REPRESENTATION_CONTEXT('','3D')
);
#344=(
LENGTH_UNIT()
NAMED_UNIT(*)
SI_UNIT(.MILLI.,.METRE.)
);
#345=(
LENGTH_UNIT()
NAMED_UNIT(*)
SI_UNIT($,.METRE.)
);
#346=(
NAMED_UNIT(*)
PLANE_ANGLE_UNIT()
SI_UNIT($,.RADIAN.)
);
#347=(
NAMED_UNIT(*)
SI_UNIT($,.STERADIAN.)
SOLID_ANGLE_UNIT()
);
#348=SHAPE_DEFINITION_REPRESENTATION(#349,#350);
#349=PRODUCT_DEFINITION_SHAPE('',$,#352);
#350=SHAPE_REPRESENTATION('',(#194),#342);
#351=PRODUCT_DEFINITION_CONTEXT('part definition',#356,'design');
#352=PRODUCT_DEFINITION('2-2052','2-2052 v2',#353,#351);
#353=PRODUCT_DEFINITION_FORMATION('',$,#358);
#354=PRODUCT_RELATED_PRODUCT_CATEGORY('2-2052 v2','2-2052 v2',(#358));
#355=APPLICATION_PROTOCOL_DEFINITION('international standard',
'automotive_design',2009,#356);
#356=APPLICATION_CONTEXT(
'Core Data for Automotive Mechanical Design Process');
#357=PRODUCT_CONTEXT('part definition',#356,'mechanical');
#358=PRODUCT('2-2052','2-2052 v2',$,(#357));
#359=PRESENTATION_STYLE_ASSIGNMENT((#360));
#360=SURFACE_STYLE_USAGE(.BOTH.,#361);
#361=SURFACE_SIDE_STYLE('',(#362));
#362=SURFACE_STYLE_FILL_AREA(#363);
#363=FILL_AREA_STYLE('Steel - Satin',(#364));
#364=FILL_AREA_STYLE_COLOUR('Steel - Satin',#365);
#365=COLOUR_RGB('Steel - Satin',0.627450980392157,0.627450980392157,0.627450980392157);
ENDSEC;
END-ISO-10303-21;
