ISO-10303-21;
HEADER;
/* Generated by software containing ST-Developer
 * from STEP Tools, Inc. (www.steptools.com) 
 */

FILE_DESCRIPTION(
/* description */ (''),
/* implementation_level */ '2;1');

FILE_NAME(
/* name */ '/Users/matt/Desktop/4060 CORRECT v5.step',
/* time_stamp */ '2020-11-03T12:49:44+00:00',
/* author */ (''),
/* organization */ (''),
/* preprocessor_version */ 'ST-DEVELOPER v18.1',
/* originating_system */ 'Autodesk Translation Framework v9.3.0.1241',
/* authorisation */ '');

FILE_SCHEMA (('AUTOMOTIVE_DESIGN { 1 0 10303 214 3 1 1 }'));
ENDSEC;

DATA;
#10=MECHANICAL_DESIGN_GEOMETRIC_PRESENTATION_REPRESENTATION('',(#30,#31),
#525);
#11=ITEM_DEFINED_TRANSFORMATION($,$,#291,#336);
#12=ITEM_DEFINED_TRANSFORMATION($,$,#303,#337);
#13=(
REPRESENTATION_RELATIONSHIP($,$,#539,#538)
REPRESENTATION_RELATIONSHIP_WITH_TRANSFORMATION(#11)
SHAPE_REPRESENTATION_RELATIONSHIP()
);
#14=(
REPRESENTATION_RELATIONSHIP($,$,#540,#538)
REPRESENTATION_RELATIONSHIP_WITH_TRANSFORMATION(#12)
SHAPE_REPRESENTATION_RELATIONSHIP()
);
#15=CONTEXT_DEPENDENT_SHAPE_REPRESENTATION(#13,#536);
#16=CONTEXT_DEPENDENT_SHAPE_REPRESENTATION(#14,#537);
#17=NEXT_ASSEMBLY_USAGE_OCCURRENCE('Component1:1','Component1:1',
'Component1:1',#542,#543,'Component1:1');
#18=NEXT_ASSEMBLY_USAGE_OCCURRENCE('Component2:1','Component2:1',
'Component2:1',#542,#544,'Component2:1');
#19=FACE_BOUND('',#88,.T.);
#20=FACE_BOUND('',#92,.T.);
#21=FACE_BOUND('',#96,.T.);
#22=CONICAL_SURFACE('',#306,23.475,0.495382982529261);
#23=CONICAL_SURFACE('',#310,27.25,0.785398163397444);
#24=CONICAL_SURFACE('',#316,35.25,0.785398163397451);
#25=CONICAL_SURFACE('',#333,45.7800503583142,1.22173047639603);
#26=SHAPE_REPRESENTATION_RELATIONSHIP('SRR','None',#539,#28);
#27=SHAPE_REPRESENTATION_RELATIONSHIP('SRR','None',#540,#29);
#28=ADVANCED_BREP_SHAPE_REPRESENTATION('',(#32),#523);
#29=ADVANCED_BREP_SHAPE_REPRESENTATION('',(#33),#524);
#30=STYLED_ITEM('',(#557),#32);
#31=STYLED_ITEM('',(#557),#33);
#32=MANIFOLD_SOLID_BREP('Body1',#265);
#33=MANIFOLD_SOLID_BREP('Body1',#266);
#34=PLANE('',#298);
#35=PLANE('',#302);
#36=PLANE('',#304);
#37=PLANE('',#308);
#38=PLANE('',#314);
#39=PLANE('',#320);
#40=PLANE('',#335);
#41=LINE('',#453,#49);
#42=LINE('',#467,#50);
#43=LINE('',#474,#51);
#44=LINE('',#478,#52);
#45=LINE('',#485,#53);
#46=LINE('',#489,#54);
#47=LINE('',#503,#55);
#48=LINE('',#514,#56);
#49=VECTOR('',#354,21.);
#50=VECTOR('',#375,23.475);
#51=VECTOR('',#384,27.25);
#52=VECTOR('',#389,27.5);
#53=VECTOR('',#398,35.25);
#54=VECTOR('',#403,35.5);
#55=VECTOR('',#420,53.85);
#56=VECTOR('',#435,45.7800503583142);
#57=CYLINDRICAL_SURFACE('',#296,21.);
#58=CYLINDRICAL_SURFACE('',#312,27.5);
#59=CYLINDRICAL_SURFACE('',#318,35.5);
#60=CYLINDRICAL_SURFACE('',#326,53.85);
#61=FACE_OUTER_BOUND('',#80,.T.);
#62=FACE_OUTER_BOUND('',#81,.T.);
#63=FACE_OUTER_BOUND('',#82,.T.);
#64=FACE_OUTER_BOUND('',#83,.T.);
#65=FACE_OUTER_BOUND('',#84,.T.);
#66=FACE_OUTER_BOUND('',#85,.T.);
#67=FACE_OUTER_BOUND('',#86,.T.);
#68=FACE_OUTER_BOUND('',#87,.T.);
#69=FACE_OUTER_BOUND('',#89,.T.);
#70=FACE_OUTER_BOUND('',#90,.T.);
#71=FACE_OUTER_BOUND('',#91,.T.);
#72=FACE_OUTER_BOUND('',#93,.T.);
#73=FACE_OUTER_BOUND('',#94,.T.);
#74=FACE_OUTER_BOUND('',#95,.T.);
#75=FACE_OUTER_BOUND('',#97,.T.);
#76=FACE_OUTER_BOUND('',#98,.T.);
#77=FACE_OUTER_BOUND('',#99,.T.);
#78=FACE_OUTER_BOUND('',#100,.T.);
#79=FACE_OUTER_BOUND('',#101,.T.);
#80=EDGE_LOOP('',(#178,#179,#180,#181));
#81=EDGE_LOOP('',(#182,#183,#184,#185));
#82=EDGE_LOOP('',(#186));
#83=EDGE_LOOP('',(#187,#188,#189,#190));
#84=EDGE_LOOP('',(#191));
#85=EDGE_LOOP('',(#192));
#86=EDGE_LOOP('',(#193,#194,#195,#196));
#87=EDGE_LOOP('',(#197));
#88=EDGE_LOOP('',(#198));
#89=EDGE_LOOP('',(#199,#200,#201,#202));
#90=EDGE_LOOP('',(#203,#204,#205,#206));
#91=EDGE_LOOP('',(#207));
#92=EDGE_LOOP('',(#208));
#93=EDGE_LOOP('',(#209,#210,#211,#212));
#94=EDGE_LOOP('',(#213,#214,#215,#216));
#95=EDGE_LOOP('',(#217));
#96=EDGE_LOOP('',(#218));
#97=EDGE_LOOP('',(#219,#220,#221,#222,#223));
#98=EDGE_LOOP('',(#224,#225,#226,#227,#228,#229));
#99=EDGE_LOOP('',(#230,#231,#232,#233,#234,#235));
#100=EDGE_LOOP('',(#236,#237,#238,#239,#240));
#101=EDGE_LOOP('',(#241));
#102=CIRCLE('',#293,21.);
#103=CIRCLE('',#294,2.);
#104=CIRCLE('',#295,19.);
#105=CIRCLE('',#297,21.);
#106=CIRCLE('',#300,19.);
#107=CIRCLE('',#301,2.);
#108=CIRCLE('',#305,21.8);
#109=CIRCLE('',#307,25.15);
#110=CIRCLE('',#309,27.);
#111=CIRCLE('',#311,27.5);
#112=CIRCLE('',#313,27.5);
#113=CIRCLE('',#315,35.);
#114=CIRCLE('',#317,35.5);
#115=CIRCLE('',#319,35.5);
#116=CIRCLE('',#321,50.85);
#117=CIRCLE('',#323,53.85);
#118=CIRCLE('',#324,53.85);
#119=CIRCLE('',#325,3.);
#120=CIRCLE('',#327,53.85);
#121=CIRCLE('',#328,53.85);
#122=CIRCLE('',#330,50.5601007166283);
#123=CIRCLE('',#331,50.5601007166283);
#124=CIRCLE('',#332,5.);
#125=CIRCLE('',#334,41.);
#126=VERTEX_POINT('',#445);
#127=VERTEX_POINT('',#447);
#128=VERTEX_POINT('',#451);
#129=VERTEX_POINT('',#456);
#130=VERTEX_POINT('',#462);
#131=VERTEX_POINT('',#465);
#132=VERTEX_POINT('',#469);
#133=VERTEX_POINT('',#472);
#134=VERTEX_POINT('',#476);
#135=VERTEX_POINT('',#480);
#136=VERTEX_POINT('',#483);
#137=VERTEX_POINT('',#487);
#138=VERTEX_POINT('',#491);
#139=VERTEX_POINT('',#494);
#140=VERTEX_POINT('',#495);
#141=VERTEX_POINT('',#500);
#142=VERTEX_POINT('',#501);
#143=VERTEX_POINT('',#506);
#144=VERTEX_POINT('',#507);
#145=VERTEX_POINT('',#512);
#146=EDGE_CURVE('',#126,#126,#102,.T.);
#147=EDGE_CURVE('',#126,#127,#103,.T.);
#148=EDGE_CURVE('',#127,#127,#104,.T.);
#149=EDGE_CURVE('',#128,#128,#105,.T.);
#150=EDGE_CURVE('',#128,#126,#41,.T.);
#151=EDGE_CURVE('',#129,#129,#106,.T.);
#152=EDGE_CURVE('',#129,#128,#107,.T.);
#153=EDGE_CURVE('',#130,#130,#108,.T.);
#154=EDGE_CURVE('',#131,#131,#109,.T.);
#155=EDGE_CURVE('',#131,#130,#42,.T.);
#156=EDGE_CURVE('',#132,#132,#110,.T.);
#157=EDGE_CURVE('',#133,#133,#111,.T.);
#158=EDGE_CURVE('',#133,#132,#43,.T.);
#159=EDGE_CURVE('',#134,#134,#112,.T.);
#160=EDGE_CURVE('',#134,#133,#44,.T.);
#161=EDGE_CURVE('',#135,#135,#113,.T.);
#162=EDGE_CURVE('',#136,#136,#114,.T.);
#163=EDGE_CURVE('',#136,#135,#45,.T.);
#164=EDGE_CURVE('',#137,#137,#115,.T.);
#165=EDGE_CURVE('',#137,#136,#46,.T.);
#166=EDGE_CURVE('',#138,#138,#116,.T.);
#167=EDGE_CURVE('',#139,#140,#117,.T.);
#168=EDGE_CURVE('',#140,#139,#118,.T.);
#169=EDGE_CURVE('',#140,#138,#119,.T.);
#170=EDGE_CURVE('',#141,#142,#120,.T.);
#171=EDGE_CURVE('',#141,#139,#47,.T.);
#172=EDGE_CURVE('',#142,#141,#121,.T.);
#173=EDGE_CURVE('',#143,#144,#122,.T.);
#174=EDGE_CURVE('',#144,#143,#123,.T.);
#175=EDGE_CURVE('',#144,#142,#124,.T.);
#176=EDGE_CURVE('',#145,#145,#125,.T.);
#177=EDGE_CURVE('',#145,#143,#48,.T.);
#178=ORIENTED_EDGE('',*,*,#146,.T.);
#179=ORIENTED_EDGE('',*,*,#147,.T.);
#180=ORIENTED_EDGE('',*,*,#148,.T.);
#181=ORIENTED_EDGE('',*,*,#147,.F.);
#182=ORIENTED_EDGE('',*,*,#149,.F.);
#183=ORIENTED_EDGE('',*,*,#150,.T.);
#184=ORIENTED_EDGE('',*,*,#146,.F.);
#185=ORIENTED_EDGE('',*,*,#150,.F.);
#186=ORIENTED_EDGE('',*,*,#148,.F.);
#187=ORIENTED_EDGE('',*,*,#151,.T.);
#188=ORIENTED_EDGE('',*,*,#152,.T.);
#189=ORIENTED_EDGE('',*,*,#149,.T.);
#190=ORIENTED_EDGE('',*,*,#152,.F.);
#191=ORIENTED_EDGE('',*,*,#151,.F.);
#192=ORIENTED_EDGE('',*,*,#153,.F.);
#193=ORIENTED_EDGE('',*,*,#154,.F.);
#194=ORIENTED_EDGE('',*,*,#155,.T.);
#195=ORIENTED_EDGE('',*,*,#153,.T.);
#196=ORIENTED_EDGE('',*,*,#155,.F.);
#197=ORIENTED_EDGE('',*,*,#156,.F.);
#198=ORIENTED_EDGE('',*,*,#154,.T.);
#199=ORIENTED_EDGE('',*,*,#157,.F.);
#200=ORIENTED_EDGE('',*,*,#158,.T.);
#201=ORIENTED_EDGE('',*,*,#156,.T.);
#202=ORIENTED_EDGE('',*,*,#158,.F.);
#203=ORIENTED_EDGE('',*,*,#159,.F.);
#204=ORIENTED_EDGE('',*,*,#160,.T.);
#205=ORIENTED_EDGE('',*,*,#157,.T.);
#206=ORIENTED_EDGE('',*,*,#160,.F.);
#207=ORIENTED_EDGE('',*,*,#161,.F.);
#208=ORIENTED_EDGE('',*,*,#159,.T.);
#209=ORIENTED_EDGE('',*,*,#162,.F.);
#210=ORIENTED_EDGE('',*,*,#163,.T.);
#211=ORIENTED_EDGE('',*,*,#161,.T.);
#212=ORIENTED_EDGE('',*,*,#163,.F.);
#213=ORIENTED_EDGE('',*,*,#164,.F.);
#214=ORIENTED_EDGE('',*,*,#165,.T.);
#215=ORIENTED_EDGE('',*,*,#162,.T.);
#216=ORIENTED_EDGE('',*,*,#165,.F.);
#217=ORIENTED_EDGE('',*,*,#166,.F.);
#218=ORIENTED_EDGE('',*,*,#164,.T.);
#219=ORIENTED_EDGE('',*,*,#167,.F.);
#220=ORIENTED_EDGE('',*,*,#168,.F.);
#221=ORIENTED_EDGE('',*,*,#169,.T.);
#222=ORIENTED_EDGE('',*,*,#166,.T.);
#223=ORIENTED_EDGE('',*,*,#169,.F.);
#224=ORIENTED_EDGE('',*,*,#170,.F.);
#225=ORIENTED_EDGE('',*,*,#171,.T.);
#226=ORIENTED_EDGE('',*,*,#167,.T.);
#227=ORIENTED_EDGE('',*,*,#168,.T.);
#228=ORIENTED_EDGE('',*,*,#171,.F.);
#229=ORIENTED_EDGE('',*,*,#172,.F.);
#230=ORIENTED_EDGE('',*,*,#173,.F.);
#231=ORIENTED_EDGE('',*,*,#174,.F.);
#232=ORIENTED_EDGE('',*,*,#175,.T.);
#233=ORIENTED_EDGE('',*,*,#172,.T.);
#234=ORIENTED_EDGE('',*,*,#170,.T.);
#235=ORIENTED_EDGE('',*,*,#175,.F.);
#236=ORIENTED_EDGE('',*,*,#176,.F.);
#237=ORIENTED_EDGE('',*,*,#177,.T.);
#238=ORIENTED_EDGE('',*,*,#173,.T.);
#239=ORIENTED_EDGE('',*,*,#174,.T.);
#240=ORIENTED_EDGE('',*,*,#177,.F.);
#241=ORIENTED_EDGE('',*,*,#176,.T.);
#242=TOROIDAL_SURFACE('',#292,19.,2.);
#243=TOROIDAL_SURFACE('',#299,19.,2.);
#244=TOROIDAL_SURFACE('',#322,50.85,3.);
#245=TOROIDAL_SURFACE('',#329,48.85,5.);
#246=ADVANCED_FACE('',(#61),#242,.T.);
#247=ADVANCED_FACE('',(#62),#57,.T.);
#248=ADVANCED_FACE('',(#63),#34,.F.);
#249=ADVANCED_FACE('',(#64),#243,.T.);
#250=ADVANCED_FACE('',(#65),#35,.T.);
#251=ADVANCED_FACE('',(#66),#36,.T.);
#252=ADVANCED_FACE('',(#67),#22,.T.);
#253=ADVANCED_FACE('',(#68,#19),#37,.T.);
#254=ADVANCED_FACE('',(#69),#23,.T.);
#255=ADVANCED_FACE('',(#70),#58,.T.);
#256=ADVANCED_FACE('',(#71,#20),#38,.T.);
#257=ADVANCED_FACE('',(#72),#24,.T.);
#258=ADVANCED_FACE('',(#73),#59,.T.);
#259=ADVANCED_FACE('',(#74,#21),#39,.T.);
#260=ADVANCED_FACE('',(#75),#244,.T.);
#261=ADVANCED_FACE('',(#76),#60,.T.);
#262=ADVANCED_FACE('',(#77),#245,.T.);
#263=ADVANCED_FACE('',(#78),#25,.T.);
#264=ADVANCED_FACE('',(#79),#40,.T.);
#265=CLOSED_SHELL('',(#246,#247,#248,#249,#250));
#266=CLOSED_SHELL('',(#251,#252,#253,#254,#255,#256,#257,#258,#259,#260,
#261,#262,#263,#264));
#267=DERIVED_UNIT_ELEMENT(#271,1.);
#268=DERIVED_UNIT_ELEMENT(#527,3.);
#269=DERIVED_UNIT_ELEMENT(#271,1.);
#270=DERIVED_UNIT_ELEMENT(#527,3.);
#271=(
MASS_UNIT()
NAMED_UNIT(*)
SI_UNIT(.KILO.,.GRAM.)
);
#272=DERIVED_UNIT((#267,#268));
#273=DERIVED_UNIT((#269,#270));
#274=MEASURE_REPRESENTATION_ITEM('density measure',
POSITIVE_RATIO_MEASURE(7850.),#272);
#275=MEASURE_REPRESENTATION_ITEM('density measure',
POSITIVE_RATIO_MEASURE(7850.),#273);
#276=PROPERTY_DEFINITION_REPRESENTATION(#286,#280);
#277=PROPERTY_DEFINITION_REPRESENTATION(#287,#281);
#278=PROPERTY_DEFINITION_REPRESENTATION(#288,#282);
#279=PROPERTY_DEFINITION_REPRESENTATION(#289,#283);
#280=REPRESENTATION('material name',(#284),#523);
#281=REPRESENTATION('density',(#274),#523);
#282=REPRESENTATION('material name',(#285),#524);
#283=REPRESENTATION('density',(#275),#524);
#284=DESCRIPTIVE_REPRESENTATION_ITEM('Steel','Steel');
#285=DESCRIPTIVE_REPRESENTATION_ITEM('Steel','Steel');
#286=PROPERTY_DEFINITION('material property','material name',#543);
#287=PROPERTY_DEFINITION('material property','density of part',#543);
#288=PROPERTY_DEFINITION('material property','material name',#544);
#289=PROPERTY_DEFINITION('material property','density of part',#544);
#290=AXIS2_PLACEMENT_3D('placement',#442,#338,#339);
#291=AXIS2_PLACEMENT_3D('placement',#443,#340,#341);
#292=AXIS2_PLACEMENT_3D('',#444,#342,#343);
#293=AXIS2_PLACEMENT_3D('',#446,#344,#345);
#294=AXIS2_PLACEMENT_3D('',#448,#346,#347);
#295=AXIS2_PLACEMENT_3D('',#449,#348,#349);
#296=AXIS2_PLACEMENT_3D('',#450,#350,#351);
#297=AXIS2_PLACEMENT_3D('',#452,#352,#353);
#298=AXIS2_PLACEMENT_3D('',#454,#355,#356);
#299=AXIS2_PLACEMENT_3D('',#455,#357,#358);
#300=AXIS2_PLACEMENT_3D('',#457,#359,#360);
#301=AXIS2_PLACEMENT_3D('',#458,#361,#362);
#302=AXIS2_PLACEMENT_3D('',#459,#363,#364);
#303=AXIS2_PLACEMENT_3D('placement',#460,#365,#366);
#304=AXIS2_PLACEMENT_3D('',#461,#367,#368);
#305=AXIS2_PLACEMENT_3D('',#463,#369,#370);
#306=AXIS2_PLACEMENT_3D('',#464,#371,#372);
#307=AXIS2_PLACEMENT_3D('',#466,#373,#374);
#308=AXIS2_PLACEMENT_3D('',#468,#376,#377);
#309=AXIS2_PLACEMENT_3D('',#470,#378,#379);
#310=AXIS2_PLACEMENT_3D('',#471,#380,#381);
#311=AXIS2_PLACEMENT_3D('',#473,#382,#383);
#312=AXIS2_PLACEMENT_3D('',#475,#385,#386);
#313=AXIS2_PLACEMENT_3D('',#477,#387,#388);
#314=AXIS2_PLACEMENT_3D('',#479,#390,#391);
#315=AXIS2_PLACEMENT_3D('',#481,#392,#393);
#316=AXIS2_PLACEMENT_3D('',#482,#394,#395);
#317=AXIS2_PLACEMENT_3D('',#484,#396,#397);
#318=AXIS2_PLACEMENT_3D('',#486,#399,#400);
#319=AXIS2_PLACEMENT_3D('',#488,#401,#402);
#320=AXIS2_PLACEMENT_3D('',#490,#404,#405);
#321=AXIS2_PLACEMENT_3D('',#492,#406,#407);
#322=AXIS2_PLACEMENT_3D('',#493,#408,#409);
#323=AXIS2_PLACEMENT_3D('',#496,#410,#411);
#324=AXIS2_PLACEMENT_3D('',#497,#412,#413);
#325=AXIS2_PLACEMENT_3D('',#498,#414,#415);
#326=AXIS2_PLACEMENT_3D('',#499,#416,#417);
#327=AXIS2_PLACEMENT_3D('',#502,#418,#419);
#328=AXIS2_PLACEMENT_3D('',#504,#421,#422);
#329=AXIS2_PLACEMENT_3D('',#505,#423,#424);
#330=AXIS2_PLACEMENT_3D('',#508,#425,#426);
#331=AXIS2_PLACEMENT_3D('',#509,#427,#428);
#332=AXIS2_PLACEMENT_3D('',#510,#429,#430);
#333=AXIS2_PLACEMENT_3D('',#511,#431,#432);
#334=AXIS2_PLACEMENT_3D('',#513,#433,#434);
#335=AXIS2_PLACEMENT_3D('',#515,#436,#437);
#336=AXIS2_PLACEMENT_3D('',#516,#438,#439);
#337=AXIS2_PLACEMENT_3D('',#517,#440,#441);
#338=DIRECTION('axis',(0.,0.,1.));
#339=DIRECTION('refdir',(1.,0.,0.));
#340=DIRECTION('axis',(0.,0.,1.));
#341=DIRECTION('refdir',(1.,0.,0.));
#342=DIRECTION('center_axis',(0.,0.,1.));
#343=DIRECTION('ref_axis',(1.,0.,0.));
#344=DIRECTION('center_axis',(0.,0.,-1.));
#345=DIRECTION('ref_axis',(-1.83697019872103E-16,1.,0.));
#346=DIRECTION('center_axis',(0.,-1.,0.));
#347=DIRECTION('ref_axis',(-1.,0.,0.));
#348=DIRECTION('center_axis',(0.,0.,1.));
#349=DIRECTION('ref_axis',(-1.83697019872103E-16,1.,0.));
#350=DIRECTION('center_axis',(0.,0.,1.));
#351=DIRECTION('ref_axis',(1.,0.,0.));
#352=DIRECTION('center_axis',(0.,0.,1.));
#353=DIRECTION('ref_axis',(-1.83697019872103E-16,1.,0.));
#354=DIRECTION('',(0.,0.,-1.));
#355=DIRECTION('center_axis',(0.,0.,1.));
#356=DIRECTION('ref_axis',(1.,0.,0.));
#357=DIRECTION('center_axis',(0.,0.,1.));
#358=DIRECTION('ref_axis',(1.,0.,0.));
#359=DIRECTION('center_axis',(0.,0.,-1.));
#360=DIRECTION('ref_axis',(-1.83697019872103E-16,1.,0.));
#361=DIRECTION('center_axis',(0.,-1.,0.));
#362=DIRECTION('ref_axis',(-1.,0.,0.));
#363=DIRECTION('center_axis',(0.,0.,1.));
#364=DIRECTION('ref_axis',(1.,0.,0.));
#365=DIRECTION('axis',(0.,0.,1.));
#366=DIRECTION('refdir',(1.,0.,0.));
#367=DIRECTION('center_axis',(0.,1.,0.));
#368=DIRECTION('ref_axis',(0.,0.,1.));
#369=DIRECTION('center_axis',(0.,-1.,0.));
#370=DIRECTION('ref_axis',(1.,0.,0.));
#371=DIRECTION('center_axis',(0.,-1.,0.));
#372=DIRECTION('ref_axis',(1.,0.,0.));
#373=DIRECTION('center_axis',(0.,-1.,0.));
#374=DIRECTION('ref_axis',(1.,0.,0.));
#375=DIRECTION('',(0.475368629067096,0.879786716482393,5.82158670002084E-17));
#376=DIRECTION('center_axis',(0.,1.,0.));
#377=DIRECTION('ref_axis',(0.,0.,1.));
#378=DIRECTION('center_axis',(0.,-1.,0.));
#379=DIRECTION('ref_axis',(1.,0.,0.));
#380=DIRECTION('center_axis',(0.,-1.,0.));
#381=DIRECTION('ref_axis',(1.,0.,0.));
#382=DIRECTION('center_axis',(0.,-1.,0.));
#383=DIRECTION('ref_axis',(1.,0.,0.));
#384=DIRECTION('',(0.707106781186544,0.707106781186551,8.6595605623549E-17));
#385=DIRECTION('center_axis',(0.,-1.,0.));
#386=DIRECTION('ref_axis',(1.,0.,0.));
#387=DIRECTION('center_axis',(0.,-1.,0.));
#388=DIRECTION('ref_axis',(1.,0.,0.));
#389=DIRECTION('',(0.,1.,0.));
#390=DIRECTION('center_axis',(0.,1.,0.));
#391=DIRECTION('ref_axis',(0.,0.,1.));
#392=DIRECTION('center_axis',(0.,-1.,0.));
#393=DIRECTION('ref_axis',(1.,0.,0.));
#394=DIRECTION('center_axis',(0.,-1.,0.));
#395=DIRECTION('ref_axis',(1.,0.,0.));
#396=DIRECTION('center_axis',(0.,-1.,0.));
#397=DIRECTION('ref_axis',(1.,0.,0.));
#398=DIRECTION('',(0.707106781186549,0.707106781186546,8.65956056235495E-17));
#399=DIRECTION('center_axis',(0.,-1.,0.));
#400=DIRECTION('ref_axis',(1.,0.,0.));
#401=DIRECTION('center_axis',(0.,-1.,0.));
#402=DIRECTION('ref_axis',(1.,0.,0.));
#403=DIRECTION('',(0.,1.,0.));
#404=DIRECTION('center_axis',(0.,1.,0.));
#405=DIRECTION('ref_axis',(0.,0.,1.));
#406=DIRECTION('center_axis',(0.,-1.,0.));
#407=DIRECTION('ref_axis',(1.,0.,0.));
#408=DIRECTION('center_axis',(0.,-1.,0.));
#409=DIRECTION('ref_axis',(0.,0.,-1.));
#410=DIRECTION('center_axis',(0.,-1.,0.));
#411=DIRECTION('ref_axis',(1.,0.,0.));
#412=DIRECTION('center_axis',(0.,-1.,0.));
#413=DIRECTION('ref_axis',(1.,0.,0.));
#414=DIRECTION('center_axis',(-1.,0.,-1.22464679914735E-16));
#415=DIRECTION('ref_axis',(-1.22464679914735E-16,0.,1.));
#416=DIRECTION('center_axis',(0.,-1.,0.));
#417=DIRECTION('ref_axis',(1.,0.,0.));
#418=DIRECTION('center_axis',(0.,-1.,0.));
#419=DIRECTION('ref_axis',(1.,0.,0.));
#420=DIRECTION('',(0.,1.,0.));
#421=DIRECTION('center_axis',(0.,-1.,0.));
#422=DIRECTION('ref_axis',(1.,0.,0.));
#423=DIRECTION('center_axis',(0.,-1.,0.));
#424=DIRECTION('ref_axis',(0.,0.,-1.));
#425=DIRECTION('center_axis',(0.,-1.,0.));
#426=DIRECTION('ref_axis',(1.,0.,0.));
#427=DIRECTION('center_axis',(0.,-1.,0.));
#428=DIRECTION('ref_axis',(1.,0.,0.));
#429=DIRECTION('center_axis',(-1.,0.,-1.22464679914735E-16));
#430=DIRECTION('ref_axis',(-1.22464679914735E-16,0.,1.));
#431=DIRECTION('center_axis',(0.,1.,0.));
#432=DIRECTION('ref_axis',(1.,0.,0.));
#433=DIRECTION('center_axis',(0.,-1.,0.));
#434=DIRECTION('ref_axis',(1.,0.,0.));
#435=DIRECTION('',(-0.939692620785908,0.342020143325669,-1.15079156022785E-16));
#436=DIRECTION('center_axis',(0.,-1.,0.));
#437=DIRECTION('ref_axis',(0.,0.,-1.));
#438=DIRECTION('',(0.,0.,1.));
#439=DIRECTION('',(1.,0.,0.));
#440=DIRECTION('',(0.,0.,1.));
#441=DIRECTION('',(1.,0.,0.));
#442=CARTESIAN_POINT('',(0.,0.,0.));
#443=CARTESIAN_POINT('',(0.,0.,0.));
#444=CARTESIAN_POINT('Origin',(0.,-50.,-15.));
#445=CARTESIAN_POINT('',(-21.,-50.,-15.));
#446=CARTESIAN_POINT('Origin',(0.,-50.,-15.));
#447=CARTESIAN_POINT('',(-19.,-50.,-17.));
#448=CARTESIAN_POINT('Origin',(-19.,-50.,-15.));
#449=CARTESIAN_POINT('Origin',(0.,-50.,-17.));
#450=CARTESIAN_POINT('Origin',(0.,-50.,-17.));
#451=CARTESIAN_POINT('',(-21.,-50.,15.));
#452=CARTESIAN_POINT('Origin',(0.,-50.,15.));
#453=CARTESIAN_POINT('',(-21.,-50.,-17.));
#454=CARTESIAN_POINT('Origin',(16.425,-19.,-17.));
#455=CARTESIAN_POINT('Origin',(0.,-50.,15.));
#456=CARTESIAN_POINT('',(-19.,-50.,17.));
#457=CARTESIAN_POINT('Origin',(0.,-50.,17.));
#458=CARTESIAN_POINT('Origin',(-19.,-50.,15.));
#459=CARTESIAN_POINT('Origin',(16.425,-19.,17.));
#460=CARTESIAN_POINT('',(0.,0.,0.));
#461=CARTESIAN_POINT('Origin',(21.8,33.,0.));
#462=CARTESIAN_POINT('',(-21.8,33.,-2.66973002214123E-15));
#463=CARTESIAN_POINT('Origin',(-5.69718882890089E-16,33.,0.));
#464=CARTESIAN_POINT('Origin',(-5.69718882890089E-16,29.9,0.));
#465=CARTESIAN_POINT('',(-25.15,26.8,-3.07998669985559E-15));
#466=CARTESIAN_POINT('Origin',(-5.69718882890089E-16,26.8,0.));
#467=CARTESIAN_POINT('',(-23.475,29.9,-2.87485836099841E-15));
#468=CARTESIAN_POINT('Origin',(27.,26.8,0.));
#469=CARTESIAN_POINT('',(-27.,26.8,-3.30654635769785E-15));
#470=CARTESIAN_POINT('Origin',(-5.69718882890089E-16,26.8,0.));
#471=CARTESIAN_POINT('Origin',(-5.69718882890089E-16,26.55,0.));
#472=CARTESIAN_POINT('',(-27.5,26.3,-3.36777869765522E-15));
#473=CARTESIAN_POINT('Origin',(-5.69718882890089E-16,26.3,0.));
#474=CARTESIAN_POINT('',(-27.25,26.55,-3.33716252767654E-15));
#475=CARTESIAN_POINT('Origin',(-5.69718882890089E-16,22.65,0.));
#476=CARTESIAN_POINT('',(-27.5,19.,-3.36777869765522E-15));
#477=CARTESIAN_POINT('Origin',(-5.69718882890089E-16,19.,0.));
#478=CARTESIAN_POINT('',(-27.5,22.65,-3.36777869765522E-15));
#479=CARTESIAN_POINT('Origin',(35.,19.,0.));
#480=CARTESIAN_POINT('',(-35.,19.,-4.28626379701574E-15));
#481=CARTESIAN_POINT('Origin',(-5.69718882890089E-16,19.,0.));
#482=CARTESIAN_POINT('Origin',(-5.69718882890089E-16,18.75,0.));
#483=CARTESIAN_POINT('',(-35.5,18.5,-4.3474961369731E-15));
#484=CARTESIAN_POINT('Origin',(-5.69718882890089E-16,18.5,0.));
#485=CARTESIAN_POINT('',(-35.25,18.75,-4.31687996699442E-15));
#486=CARTESIAN_POINT('Origin',(-5.69718882890089E-16,16.25,0.));
#487=CARTESIAN_POINT('',(-35.5,14.,-4.3474961369731E-15));
#488=CARTESIAN_POINT('Origin',(-5.69718882890089E-16,14.,0.));
#489=CARTESIAN_POINT('',(-35.5,16.25,-4.3474961369731E-15));
#490=CARTESIAN_POINT('Origin',(50.85,14.,0.));
#491=CARTESIAN_POINT('',(-6.79704785655438E-15,14.,50.85));
#492=CARTESIAN_POINT('Origin',(-5.69718882890089E-16,14.,0.));
#493=CARTESIAN_POINT('Origin',(-5.69718882890089E-16,11.,0.));
#494=CARTESIAN_POINT('',(-53.85,11.,-6.5947230134085E-15));
#495=CARTESIAN_POINT('',(-7.16444189629859E-15,11.,53.85));
#496=CARTESIAN_POINT('Origin',(-5.69718882890089E-16,11.,0.));
#497=CARTESIAN_POINT('Origin',(-5.69718882890089E-16,11.,0.));
#498=CARTESIAN_POINT('Origin',(-6.79704785655438E-15,11.,50.85));
#499=CARTESIAN_POINT('Origin',(-5.69718882890089E-16,1.08902760068462,0.));
#500=CARTESIAN_POINT('',(-53.85,-8.82194479863075,-6.5947230134085E-15));
#501=CARTESIAN_POINT('',(-7.16444189629859E-15,-8.82194479863075,53.85));
#502=CARTESIAN_POINT('Origin',(-5.69718882890089E-16,-8.82194479863075,
0.));
#503=CARTESIAN_POINT('',(-53.85,1.08902760068462,-6.5947230134085E-15));
#504=CARTESIAN_POINT('Origin',(-5.69718882890089E-16,-8.82194479863075,
0.));
#505=CARTESIAN_POINT('Origin',(-5.69718882890089E-16,-8.82194479863075,
0.));
#506=CARTESIAN_POINT('',(-50.5601007166284,-13.5204079025603,-6.19182655071867E-15));
#507=CARTESIAN_POINT('',(-6.76154543360876E-15,-13.5204079025603,50.5601007166283));
#508=CARTESIAN_POINT('Origin',(-5.69718882890089E-16,-13.5204079025603,
0.));
#509=CARTESIAN_POINT('Origin',(-5.69718882890089E-16,-13.5204079025603,
0.));
#510=CARTESIAN_POINT('Origin',(-6.55211849672491E-15,-8.82194479863075,
48.85));
#511=CARTESIAN_POINT('Origin',(-5.69718882890089E-16,-15.2602039512801,
0.));
#512=CARTESIAN_POINT('',(-41.,-17.,-5.02105187650415E-15));
#513=CARTESIAN_POINT('Origin',(-5.69718882890089E-16,-17.,0.));
#514=CARTESIAN_POINT('',(-45.7800503583142,-15.2602039512801,-5.60643921361141E-15));
#515=CARTESIAN_POINT('Origin',(0.,-17.,0.));
#516=CARTESIAN_POINT('',(0.,50.,0.));
#517=CARTESIAN_POINT('',(0.,0.,0.));
#518=UNCERTAINTY_MEASURE_WITH_UNIT(LENGTH_MEASURE(0.01),#526,
'DISTANCE_ACCURACY_VALUE',
'Maximum model space distance between geometric entities at asserted c
onnectivities');
#519=UNCERTAINTY_MEASURE_WITH_UNIT(LENGTH_MEASURE(0.01),#526,
'DISTANCE_ACCURACY_VALUE',
'Maximum model space distance between geometric entities at asserted c
onnectivities');
#520=UNCERTAINTY_MEASURE_WITH_UNIT(LENGTH_MEASURE(0.01),#526,
'DISTANCE_ACCURACY_VALUE',
'Maximum model space distance between geometric entities at asserted c
onnectivities');
#521=UNCERTAINTY_MEASURE_WITH_UNIT(LENGTH_MEASURE(0.01),#526,
'DISTANCE_ACCURACY_VALUE',
'Maximum model space distance between geometric entities at asserted c
onnectivities');
#522=(
GEOMETRIC_REPRESENTATION_CONTEXT(3)
GLOBAL_UNCERTAINTY_ASSIGNED_CONTEXT((#518))
GLOBAL_UNIT_ASSIGNED_CONTEXT((#526,#528,#529))
REPRESENTATION_CONTEXT('','3D')
);
#523=(
GEOMETRIC_REPRESENTATION_CONTEXT(3)
GLOBAL_UNCERTAINTY_ASSIGNED_CONTEXT((#519))
GLOBAL_UNIT_ASSIGNED_CONTEXT((#526,#528,#529))
REPRESENTATION_CONTEXT('','3D')
);
#524=(
GEOMETRIC_REPRESENTATION_CONTEXT(3)
GLOBAL_UNCERTAINTY_ASSIGNED_CONTEXT((#520))
GLOBAL_UNIT_ASSIGNED_CONTEXT((#526,#528,#529))
REPRESENTATION_CONTEXT('','3D')
);
#525=(
GEOMETRIC_REPRESENTATION_CONTEXT(3)
GLOBAL_UNCERTAINTY_ASSIGNED_CONTEXT((#521))
GLOBAL_UNIT_ASSIGNED_CONTEXT((#526,#528,#529))
REPRESENTATION_CONTEXT('','3D')
);
#526=(
LENGTH_UNIT()
NAMED_UNIT(*)
SI_UNIT(.MILLI.,.METRE.)
);
#527=(
LENGTH_UNIT()
NAMED_UNIT(*)
SI_UNIT($,.METRE.)
);
#528=(
NAMED_UNIT(*)
PLANE_ANGLE_UNIT()
SI_UNIT($,.RADIAN.)
);
#529=(
NAMED_UNIT(*)
SI_UNIT($,.STERADIAN.)
SOLID_ANGLE_UNIT()
);
#530=SHAPE_DEFINITION_REPRESENTATION(#533,#538);
#531=SHAPE_DEFINITION_REPRESENTATION(#534,#539);
#532=SHAPE_DEFINITION_REPRESENTATION(#535,#540);
#533=PRODUCT_DEFINITION_SHAPE('',$,#542);
#534=PRODUCT_DEFINITION_SHAPE('',$,#543);
#535=PRODUCT_DEFINITION_SHAPE('',$,#544);
#536=PRODUCT_DEFINITION_SHAPE($,$,#17);
#537=PRODUCT_DEFINITION_SHAPE($,$,#18);
#538=SHAPE_REPRESENTATION('',(#290,#336,#337),#522);
#539=SHAPE_REPRESENTATION('',(#291),#523);
#540=SHAPE_REPRESENTATION('',(#303),#524);
#541=PRODUCT_DEFINITION_CONTEXT('part definition',#552,'design');
#542=PRODUCT_DEFINITION('4060 CORRECT','4060 CORRECT v5',#545,#541);
#543=PRODUCT_DEFINITION('Component1','Component1',#546,#541);
#544=PRODUCT_DEFINITION('Component2','Component2',#547,#541);
#545=PRODUCT_DEFINITION_FORMATION('',$,#554);
#546=PRODUCT_DEFINITION_FORMATION('',$,#555);
#547=PRODUCT_DEFINITION_FORMATION('',$,#556);
#548=PRODUCT_RELATED_PRODUCT_CATEGORY('4060 CORRECT v5',
'4060 CORRECT v5',(#554));
#549=PRODUCT_RELATED_PRODUCT_CATEGORY('Component1','Component1',(#555));
#550=PRODUCT_RELATED_PRODUCT_CATEGORY('Component2','Component2',(#556));
#551=APPLICATION_PROTOCOL_DEFINITION('international standard',
'automotive_design',2009,#552);
#552=APPLICATION_CONTEXT(
'Core Data for Automotive Mechanical Design Process');
#553=PRODUCT_CONTEXT('part definition',#552,'mechanical');
#554=PRODUCT('4060 CORRECT','4060 CORRECT v5',$,(#553));
#555=PRODUCT('Component1','Component1',$,(#553));
#556=PRODUCT('Component2','Component2',$,(#553));
#557=PRESENTATION_STYLE_ASSIGNMENT((#558));
#558=SURFACE_STYLE_USAGE(.BOTH.,#559);
#559=SURFACE_SIDE_STYLE('',(#560));
#560=SURFACE_STYLE_FILL_AREA(#561);
#561=FILL_AREA_STYLE('Steel - Satin',(#562));
#562=FILL_AREA_STYLE_COLOUR('Steel - Satin',#563);
#563=COLOUR_RGB('Steel - Satin',0.627450980392157,0.627450980392157,0.627450980392157);
ENDSEC;
END-ISO-10303-21;
