ISO-10303-21;
HEADER;
/* Generated by software containing ST-Developer
 * from STEP Tools, Inc. (www.steptools.com) 
 */

FILE_DESCRIPTION(
/* description */ (''),
/* implementation_level */ '2;1');

FILE_NAME(
/* name */ '/Users/matt/Files/EBL/CR ready for 3D/EBL-4059.step',
/* time_stamp */ '2020-02-26T10:37:31+00:00',
/* author */ (''),
/* organization */ (''),
/* preprocessor_version */ 'ST-DEVELOPER v18',
/* originating_system */ 'Autodesk Translation Framework v8.6.0.1094',
/* authorisation */ '');

FILE_SCHEMA (('AUTOMOTIVE_DESIGN { 1 0 10303 214 3 1 1 }'));
ENDSEC;

DATA;
#10=MECHANICAL_DESIGN_GEOMETRIC_PRESENTATION_REPRESENTATION('',(#23,#24),
#615);
#11=ITEM_DEFINED_TRANSFORMATION($,$,#333,#388);
#12=ITEM_DEFINED_TRANSFORMATION($,$,#373,#389);
#13=(
REPRESENTATION_RELATIONSHIP($,$,#629,#628)
REPRESENTATION_RELATIONSHIP_WITH_TRANSFORMATION(#11)
SHAPE_REPRESENTATION_RELATIONSHIP()
);
#14=(
REPRESENTATION_RELATIONSHIP($,$,#630,#628)
REPRESENTATION_RELATIONSHIP_WITH_TRANSFORMATION(#12)
SHAPE_REPRESENTATION_RELATIONSHIP()
);
#15=CONTEXT_DEPENDENT_SHAPE_REPRESENTATION(#13,#626);
#16=CONTEXT_DEPENDENT_SHAPE_REPRESENTATION(#14,#627);
#17=NEXT_ASSEMBLY_USAGE_OCCURRENCE('Component1:1','Component1:1',
'Component1:1',#632,#633,'Component1:1');
#18=NEXT_ASSEMBLY_USAGE_OCCURRENCE('Component2:1','Component2:1',
'Component2:1',#632,#634,'Component2:1');
#19=SHAPE_REPRESENTATION_RELATIONSHIP('SRR','None',#629,#21);
#20=SHAPE_REPRESENTATION_RELATIONSHIP('SRR','None',#630,#22);
#21=ADVANCED_BREP_SHAPE_REPRESENTATION('',(#25),#613);
#22=ADVANCED_BREP_SHAPE_REPRESENTATION('',(#26),#614);
#23=STYLED_ITEM('',(#647),#25);
#24=STYLED_ITEM('',(#647),#26);
#25=MANIFOLD_SOLID_BREP('Body1',#307);
#26=MANIFOLD_SOLID_BREP('Body1',#308);
#27=TOROIDAL_SURFACE('',#355,48.6,2.);
#28=TOROIDAL_SURFACE('',#364,46.6,4.);
#29=TOROIDAL_SURFACE('',#374,16.5,2.);
#30=TOROIDAL_SURFACE('',#383,16.5,2.);
#31=CYLINDRICAL_SURFACE('',#343,25.);
#32=CYLINDRICAL_SURFACE('',#349,33.5);
#33=CYLINDRICAL_SURFACE('',#360,50.6);
#34=CYLINDRICAL_SURFACE('',#379,18.5);
#35=FACE_BOUND('',#72,.T.);
#36=FACE_BOUND('',#75,.T.);
#37=FACE_BOUND('',#78,.T.);
#38=LINE('',#524,#44);
#39=LINE('',#535,#45);
#40=LINE('',#546,#46);
#41=LINE('',#566,#47);
#42=LINE('',#581,#48);
#43=LINE('',#597,#49);
#44=VECTOR('',#406,22.);
#45=VECTOR('',#419,25.);
#46=VECTOR('',#432,33.5);
#47=VECTOR('',#455,50.6);
#48=VECTOR('',#474,43.2340402866513);
#49=VECTOR('',#495,18.5);
#50=CONICAL_SURFACE('',#337,22.,0.463647609000806);
#51=CONICAL_SURFACE('',#369,43.2340402866513,1.22173047639603);
#52=FACE_OUTER_BOUND('',#69,.T.);
#53=FACE_OUTER_BOUND('',#70,.T.);
#54=FACE_OUTER_BOUND('',#71,.T.);
#55=FACE_OUTER_BOUND('',#73,.T.);
#56=FACE_OUTER_BOUND('',#74,.T.);
#57=FACE_OUTER_BOUND('',#76,.T.);
#58=FACE_OUTER_BOUND('',#77,.T.);
#59=FACE_OUTER_BOUND('',#79,.T.);
#60=FACE_OUTER_BOUND('',#80,.T.);
#61=FACE_OUTER_BOUND('',#81,.T.);
#62=FACE_OUTER_BOUND('',#82,.T.);
#63=FACE_OUTER_BOUND('',#83,.T.);
#64=FACE_OUTER_BOUND('',#84,.T.);
#65=FACE_OUTER_BOUND('',#85,.T.);
#66=FACE_OUTER_BOUND('',#86,.T.);
#67=FACE_OUTER_BOUND('',#87,.T.);
#68=FACE_OUTER_BOUND('',#88,.T.);
#69=EDGE_LOOP('',(#199,#200));
#70=EDGE_LOOP('',(#201,#202,#203,#204,#205,#206));
#71=EDGE_LOOP('',(#207,#208));
#72=EDGE_LOOP('',(#209,#210));
#73=EDGE_LOOP('',(#211,#212,#213,#214,#215,#216));
#74=EDGE_LOOP('',(#217,#218));
#75=EDGE_LOOP('',(#219,#220));
#76=EDGE_LOOP('',(#221,#222,#223,#224,#225,#226));
#77=EDGE_LOOP('',(#227,#228));
#78=EDGE_LOOP('',(#229,#230));
#79=EDGE_LOOP('',(#231,#232,#233,#234,#235,#236,#237));
#80=EDGE_LOOP('',(#238,#239,#240,#241,#242,#243,#244,#245));
#81=EDGE_LOOP('',(#246,#247,#248,#249,#250,#251,#252,#253));
#82=EDGE_LOOP('',(#254,#255,#256,#257,#258,#259,#260));
#83=EDGE_LOOP('',(#261,#262));
#84=EDGE_LOOP('',(#263,#264,#265,#266,#267));
#85=EDGE_LOOP('',(#268,#269,#270,#271,#272,#273));
#86=EDGE_LOOP('',(#274));
#87=EDGE_LOOP('',(#275,#276,#277,#278,#279,#280));
#88=EDGE_LOOP('',(#281,#282));
#89=CIRCLE('',#335,20.5);
#90=CIRCLE('',#336,20.5);
#91=CIRCLE('',#338,23.5);
#92=CIRCLE('',#339,23.5);
#93=CIRCLE('',#341,25.);
#94=CIRCLE('',#342,25.);
#95=CIRCLE('',#344,25.);
#96=CIRCLE('',#345,25.);
#97=CIRCLE('',#347,33.5);
#98=CIRCLE('',#348,33.5);
#99=CIRCLE('',#350,33.5);
#100=CIRCLE('',#351,33.5);
#101=CIRCLE('',#353,48.6);
#102=CIRCLE('',#354,48.6);
#103=CIRCLE('',#356,50.6);
#104=CIRCLE('',#357,50.6);
#105=CIRCLE('',#358,50.6);
#106=CIRCLE('',#359,2.);
#107=CIRCLE('',#361,50.6);
#108=CIRCLE('',#362,50.6);
#109=CIRCLE('',#363,50.6);
#110=CIRCLE('',#365,47.9680805733027);
#111=CIRCLE('',#366,47.9680805733027);
#112=CIRCLE('',#367,47.9680805733027);
#113=CIRCLE('',#368,4.);
#114=CIRCLE('',#370,38.5);
#115=CIRCLE('',#371,38.5);
#116=CIRCLE('',#375,16.5);
#117=CIRCLE('',#376,2.);
#118=CIRCLE('',#377,18.5);
#119=CIRCLE('',#378,18.5);
#120=CIRCLE('',#380,18.5);
#121=CIRCLE('',#381,18.5);
#122=CIRCLE('',#384,16.5);
#123=CIRCLE('',#385,2.);
#124=CIRCLE('',#386,16.5);
#125=VERTEX_POINT('',#515);
#126=VERTEX_POINT('',#516);
#127=VERTEX_POINT('',#520);
#128=VERTEX_POINT('',#521);
#129=VERTEX_POINT('',#526);
#130=VERTEX_POINT('',#527);
#131=VERTEX_POINT('',#531);
#132=VERTEX_POINT('',#532);
#133=VERTEX_POINT('',#537);
#134=VERTEX_POINT('',#538);
#135=VERTEX_POINT('',#542);
#136=VERTEX_POINT('',#543);
#137=VERTEX_POINT('',#548);
#138=VERTEX_POINT('',#549);
#139=VERTEX_POINT('',#553);
#140=VERTEX_POINT('',#554);
#141=VERTEX_POINT('',#556);
#142=VERTEX_POINT('',#561);
#143=VERTEX_POINT('',#562);
#144=VERTEX_POINT('',#564);
#145=VERTEX_POINT('',#569);
#146=VERTEX_POINT('',#570);
#147=VERTEX_POINT('',#572);
#148=VERTEX_POINT('',#577);
#149=VERTEX_POINT('',#578);
#150=VERTEX_POINT('',#585);
#151=VERTEX_POINT('',#587);
#152=VERTEX_POINT('',#589);
#153=VERTEX_POINT('',#593);
#154=VERTEX_POINT('',#594);
#155=VERTEX_POINT('',#600);
#156=VERTEX_POINT('',#601);
#157=EDGE_CURVE('',#125,#126,#89,.T.);
#158=EDGE_CURVE('',#126,#125,#90,.T.);
#159=EDGE_CURVE('',#127,#128,#91,.T.);
#160=EDGE_CURVE('',#128,#127,#92,.T.);
#161=EDGE_CURVE('',#128,#126,#38,.T.);
#162=EDGE_CURVE('',#129,#130,#93,.T.);
#163=EDGE_CURVE('',#130,#129,#94,.T.);
#164=EDGE_CURVE('',#131,#132,#95,.T.);
#165=EDGE_CURVE('',#132,#131,#96,.T.);
#166=EDGE_CURVE('',#132,#130,#39,.T.);
#167=EDGE_CURVE('',#133,#134,#97,.T.);
#168=EDGE_CURVE('',#134,#133,#98,.T.);
#169=EDGE_CURVE('',#135,#136,#99,.T.);
#170=EDGE_CURVE('',#136,#135,#100,.T.);
#171=EDGE_CURVE('',#136,#134,#40,.T.);
#172=EDGE_CURVE('',#137,#138,#101,.T.);
#173=EDGE_CURVE('',#138,#137,#102,.T.);
#174=EDGE_CURVE('',#139,#140,#103,.T.);
#175=EDGE_CURVE('',#141,#139,#104,.T.);
#176=EDGE_CURVE('',#140,#141,#105,.T.);
#177=EDGE_CURVE('',#140,#138,#106,.T.);
#178=EDGE_CURVE('',#142,#143,#107,.T.);
#179=EDGE_CURVE('',#144,#142,#108,.T.);
#180=EDGE_CURVE('',#144,#141,#41,.T.);
#181=EDGE_CURVE('',#143,#144,#109,.T.);
#182=EDGE_CURVE('',#145,#146,#110,.T.);
#183=EDGE_CURVE('',#147,#145,#111,.T.);
#184=EDGE_CURVE('',#146,#147,#112,.T.);
#185=EDGE_CURVE('',#146,#143,#113,.T.);
#186=EDGE_CURVE('',#148,#149,#114,.T.);
#187=EDGE_CURVE('',#149,#148,#115,.T.);
#188=EDGE_CURVE('',#149,#147,#42,.T.);
#189=EDGE_CURVE('',#150,#150,#116,.T.);
#190=EDGE_CURVE('',#150,#151,#117,.T.);
#191=EDGE_CURVE('',#151,#152,#118,.T.);
#192=EDGE_CURVE('',#152,#151,#119,.T.);
#193=EDGE_CURVE('',#153,#154,#120,.T.);
#194=EDGE_CURVE('',#154,#153,#121,.T.);
#195=EDGE_CURVE('',#154,#152,#43,.T.);
#196=EDGE_CURVE('',#155,#156,#122,.T.);
#197=EDGE_CURVE('',#156,#154,#123,.T.);
#198=EDGE_CURVE('',#156,#155,#124,.T.);
#199=ORIENTED_EDGE('',*,*,#157,.F.);
#200=ORIENTED_EDGE('',*,*,#158,.F.);
#201=ORIENTED_EDGE('',*,*,#159,.F.);
#202=ORIENTED_EDGE('',*,*,#160,.F.);
#203=ORIENTED_EDGE('',*,*,#161,.T.);
#204=ORIENTED_EDGE('',*,*,#158,.T.);
#205=ORIENTED_EDGE('',*,*,#157,.T.);
#206=ORIENTED_EDGE('',*,*,#161,.F.);
#207=ORIENTED_EDGE('',*,*,#162,.F.);
#208=ORIENTED_EDGE('',*,*,#163,.F.);
#209=ORIENTED_EDGE('',*,*,#159,.T.);
#210=ORIENTED_EDGE('',*,*,#160,.T.);
#211=ORIENTED_EDGE('',*,*,#164,.F.);
#212=ORIENTED_EDGE('',*,*,#165,.F.);
#213=ORIENTED_EDGE('',*,*,#166,.T.);
#214=ORIENTED_EDGE('',*,*,#163,.T.);
#215=ORIENTED_EDGE('',*,*,#162,.T.);
#216=ORIENTED_EDGE('',*,*,#166,.F.);
#217=ORIENTED_EDGE('',*,*,#167,.F.);
#218=ORIENTED_EDGE('',*,*,#168,.F.);
#219=ORIENTED_EDGE('',*,*,#164,.T.);
#220=ORIENTED_EDGE('',*,*,#165,.T.);
#221=ORIENTED_EDGE('',*,*,#169,.F.);
#222=ORIENTED_EDGE('',*,*,#170,.F.);
#223=ORIENTED_EDGE('',*,*,#171,.T.);
#224=ORIENTED_EDGE('',*,*,#168,.T.);
#225=ORIENTED_EDGE('',*,*,#167,.T.);
#226=ORIENTED_EDGE('',*,*,#171,.F.);
#227=ORIENTED_EDGE('',*,*,#172,.F.);
#228=ORIENTED_EDGE('',*,*,#173,.F.);
#229=ORIENTED_EDGE('',*,*,#169,.T.);
#230=ORIENTED_EDGE('',*,*,#170,.T.);
#231=ORIENTED_EDGE('',*,*,#174,.F.);
#232=ORIENTED_EDGE('',*,*,#175,.F.);
#233=ORIENTED_EDGE('',*,*,#176,.F.);
#234=ORIENTED_EDGE('',*,*,#177,.T.);
#235=ORIENTED_EDGE('',*,*,#173,.T.);
#236=ORIENTED_EDGE('',*,*,#172,.T.);
#237=ORIENTED_EDGE('',*,*,#177,.F.);
#238=ORIENTED_EDGE('',*,*,#178,.F.);
#239=ORIENTED_EDGE('',*,*,#179,.F.);
#240=ORIENTED_EDGE('',*,*,#180,.T.);
#241=ORIENTED_EDGE('',*,*,#175,.T.);
#242=ORIENTED_EDGE('',*,*,#174,.T.);
#243=ORIENTED_EDGE('',*,*,#176,.T.);
#244=ORIENTED_EDGE('',*,*,#180,.F.);
#245=ORIENTED_EDGE('',*,*,#181,.F.);
#246=ORIENTED_EDGE('',*,*,#182,.F.);
#247=ORIENTED_EDGE('',*,*,#183,.F.);
#248=ORIENTED_EDGE('',*,*,#184,.F.);
#249=ORIENTED_EDGE('',*,*,#185,.T.);
#250=ORIENTED_EDGE('',*,*,#181,.T.);
#251=ORIENTED_EDGE('',*,*,#179,.T.);
#252=ORIENTED_EDGE('',*,*,#178,.T.);
#253=ORIENTED_EDGE('',*,*,#185,.F.);
#254=ORIENTED_EDGE('',*,*,#186,.F.);
#255=ORIENTED_EDGE('',*,*,#187,.F.);
#256=ORIENTED_EDGE('',*,*,#188,.T.);
#257=ORIENTED_EDGE('',*,*,#183,.T.);
#258=ORIENTED_EDGE('',*,*,#182,.T.);
#259=ORIENTED_EDGE('',*,*,#184,.T.);
#260=ORIENTED_EDGE('',*,*,#188,.F.);
#261=ORIENTED_EDGE('',*,*,#186,.T.);
#262=ORIENTED_EDGE('',*,*,#187,.T.);
#263=ORIENTED_EDGE('',*,*,#189,.T.);
#264=ORIENTED_EDGE('',*,*,#190,.T.);
#265=ORIENTED_EDGE('',*,*,#191,.T.);
#266=ORIENTED_EDGE('',*,*,#192,.T.);
#267=ORIENTED_EDGE('',*,*,#190,.F.);
#268=ORIENTED_EDGE('',*,*,#193,.F.);
#269=ORIENTED_EDGE('',*,*,#194,.F.);
#270=ORIENTED_EDGE('',*,*,#195,.T.);
#271=ORIENTED_EDGE('',*,*,#191,.F.);
#272=ORIENTED_EDGE('',*,*,#192,.F.);
#273=ORIENTED_EDGE('',*,*,#195,.F.);
#274=ORIENTED_EDGE('',*,*,#189,.F.);
#275=ORIENTED_EDGE('',*,*,#196,.T.);
#276=ORIENTED_EDGE('',*,*,#197,.T.);
#277=ORIENTED_EDGE('',*,*,#194,.T.);
#278=ORIENTED_EDGE('',*,*,#193,.T.);
#279=ORIENTED_EDGE('',*,*,#197,.F.);
#280=ORIENTED_EDGE('',*,*,#198,.T.);
#281=ORIENTED_EDGE('',*,*,#196,.F.);
#282=ORIENTED_EDGE('',*,*,#198,.F.);
#283=PLANE('',#334);
#284=PLANE('',#340);
#285=PLANE('',#346);
#286=PLANE('',#352);
#287=PLANE('',#372);
#288=PLANE('',#382);
#289=PLANE('',#387);
#290=ADVANCED_FACE('',(#52),#283,.T.);
#291=ADVANCED_FACE('',(#53),#50,.T.);
#292=ADVANCED_FACE('',(#54,#35),#284,.T.);
#293=ADVANCED_FACE('',(#55),#31,.T.);
#294=ADVANCED_FACE('',(#56,#36),#285,.T.);
#295=ADVANCED_FACE('',(#57),#32,.T.);
#296=ADVANCED_FACE('',(#58,#37),#286,.T.);
#297=ADVANCED_FACE('',(#59),#27,.T.);
#298=ADVANCED_FACE('',(#60),#33,.T.);
#299=ADVANCED_FACE('',(#61),#28,.T.);
#300=ADVANCED_FACE('',(#62),#51,.T.);
#301=ADVANCED_FACE('',(#63),#287,.T.);
#302=ADVANCED_FACE('',(#64),#29,.T.);
#303=ADVANCED_FACE('',(#65),#34,.T.);
#304=ADVANCED_FACE('',(#66),#288,.T.);
#305=ADVANCED_FACE('',(#67),#30,.T.);
#306=ADVANCED_FACE('',(#68),#289,.T.);
#307=CLOSED_SHELL('',(#290,#291,#292,#293,#294,#295,#296,#297,#298,#299,
#300,#301));
#308=CLOSED_SHELL('',(#302,#303,#304,#305,#306));
#309=DERIVED_UNIT_ELEMENT(#313,1.);
#310=DERIVED_UNIT_ELEMENT(#617,3.);
#311=DERIVED_UNIT_ELEMENT(#313,1.);
#312=DERIVED_UNIT_ELEMENT(#617,3.);
#313=(
MASS_UNIT()
NAMED_UNIT(*)
SI_UNIT(.KILO.,.GRAM.)
);
#314=DERIVED_UNIT((#309,#310));
#315=DERIVED_UNIT((#311,#312));
#316=MEASURE_REPRESENTATION_ITEM('density measure',
POSITIVE_RATIO_MEASURE(7850.),#314);
#317=MEASURE_REPRESENTATION_ITEM('density measure',
POSITIVE_RATIO_MEASURE(7850.),#315);
#318=PROPERTY_DEFINITION_REPRESENTATION(#328,#322);
#319=PROPERTY_DEFINITION_REPRESENTATION(#329,#323);
#320=PROPERTY_DEFINITION_REPRESENTATION(#330,#324);
#321=PROPERTY_DEFINITION_REPRESENTATION(#331,#325);
#322=REPRESENTATION('material name',(#326),#613);
#323=REPRESENTATION('density',(#316),#613);
#324=REPRESENTATION('material name',(#327),#614);
#325=REPRESENTATION('density',(#317),#614);
#326=DESCRIPTIVE_REPRESENTATION_ITEM('Steel','Steel');
#327=DESCRIPTIVE_REPRESENTATION_ITEM('Steel','Steel');
#328=PROPERTY_DEFINITION('material property','material name',#633);
#329=PROPERTY_DEFINITION('material property','density of part',#633);
#330=PROPERTY_DEFINITION('material property','material name',#634);
#331=PROPERTY_DEFINITION('material property','density of part',#634);
#332=AXIS2_PLACEMENT_3D('placement',#512,#390,#391);
#333=AXIS2_PLACEMENT_3D('placement',#513,#392,#393);
#334=AXIS2_PLACEMENT_3D('',#514,#394,#395);
#335=AXIS2_PLACEMENT_3D('',#517,#396,#397);
#336=AXIS2_PLACEMENT_3D('',#518,#398,#399);
#337=AXIS2_PLACEMENT_3D('',#519,#400,#401);
#338=AXIS2_PLACEMENT_3D('',#522,#402,#403);
#339=AXIS2_PLACEMENT_3D('',#523,#404,#405);
#340=AXIS2_PLACEMENT_3D('',#525,#407,#408);
#341=AXIS2_PLACEMENT_3D('',#528,#409,#410);
#342=AXIS2_PLACEMENT_3D('',#529,#411,#412);
#343=AXIS2_PLACEMENT_3D('',#530,#413,#414);
#344=AXIS2_PLACEMENT_3D('',#533,#415,#416);
#345=AXIS2_PLACEMENT_3D('',#534,#417,#418);
#346=AXIS2_PLACEMENT_3D('',#536,#420,#421);
#347=AXIS2_PLACEMENT_3D('',#539,#422,#423);
#348=AXIS2_PLACEMENT_3D('',#540,#424,#425);
#349=AXIS2_PLACEMENT_3D('',#541,#426,#427);
#350=AXIS2_PLACEMENT_3D('',#544,#428,#429);
#351=AXIS2_PLACEMENT_3D('',#545,#430,#431);
#352=AXIS2_PLACEMENT_3D('',#547,#433,#434);
#353=AXIS2_PLACEMENT_3D('',#550,#435,#436);
#354=AXIS2_PLACEMENT_3D('',#551,#437,#438);
#355=AXIS2_PLACEMENT_3D('',#552,#439,#440);
#356=AXIS2_PLACEMENT_3D('',#555,#441,#442);
#357=AXIS2_PLACEMENT_3D('',#557,#443,#444);
#358=AXIS2_PLACEMENT_3D('',#558,#445,#446);
#359=AXIS2_PLACEMENT_3D('',#559,#447,#448);
#360=AXIS2_PLACEMENT_3D('',#560,#449,#450);
#361=AXIS2_PLACEMENT_3D('',#563,#451,#452);
#362=AXIS2_PLACEMENT_3D('',#565,#453,#454);
#363=AXIS2_PLACEMENT_3D('',#567,#456,#457);
#364=AXIS2_PLACEMENT_3D('',#568,#458,#459);
#365=AXIS2_PLACEMENT_3D('',#571,#460,#461);
#366=AXIS2_PLACEMENT_3D('',#573,#462,#463);
#367=AXIS2_PLACEMENT_3D('',#574,#464,#465);
#368=AXIS2_PLACEMENT_3D('',#575,#466,#467);
#369=AXIS2_PLACEMENT_3D('',#576,#468,#469);
#370=AXIS2_PLACEMENT_3D('',#579,#470,#471);
#371=AXIS2_PLACEMENT_3D('',#580,#472,#473);
#372=AXIS2_PLACEMENT_3D('',#582,#475,#476);
#373=AXIS2_PLACEMENT_3D('placement',#583,#477,#478);
#374=AXIS2_PLACEMENT_3D('',#584,#479,#480);
#375=AXIS2_PLACEMENT_3D('',#586,#481,#482);
#376=AXIS2_PLACEMENT_3D('',#588,#483,#484);
#377=AXIS2_PLACEMENT_3D('',#590,#485,#486);
#378=AXIS2_PLACEMENT_3D('',#591,#487,#488);
#379=AXIS2_PLACEMENT_3D('',#592,#489,#490);
#380=AXIS2_PLACEMENT_3D('',#595,#491,#492);
#381=AXIS2_PLACEMENT_3D('',#596,#493,#494);
#382=AXIS2_PLACEMENT_3D('',#598,#496,#497);
#383=AXIS2_PLACEMENT_3D('',#599,#498,#499);
#384=AXIS2_PLACEMENT_3D('',#602,#500,#501);
#385=AXIS2_PLACEMENT_3D('',#603,#502,#503);
#386=AXIS2_PLACEMENT_3D('',#604,#504,#505);
#387=AXIS2_PLACEMENT_3D('',#605,#506,#507);
#388=AXIS2_PLACEMENT_3D('',#606,#508,#509);
#389=AXIS2_PLACEMENT_3D('',#607,#510,#511);
#390=DIRECTION('axis',(0.,0.,1.));
#391=DIRECTION('refdir',(1.,0.,0.));
#392=DIRECTION('axis',(0.,0.,1.));
#393=DIRECTION('refdir',(1.,0.,0.));
#394=DIRECTION('center_axis',(0.,1.,0.));
#395=DIRECTION('ref_axis',(0.,0.,1.));
#396=DIRECTION('center_axis',(0.,-1.,0.));
#397=DIRECTION('ref_axis',(1.,0.,0.));
#398=DIRECTION('center_axis',(0.,-1.,0.));
#399=DIRECTION('ref_axis',(1.,0.,0.));
#400=DIRECTION('center_axis',(0.,-1.,0.));
#401=DIRECTION('ref_axis',(1.,0.,0.));
#402=DIRECTION('center_axis',(0.,-1.,0.));
#403=DIRECTION('ref_axis',(1.,0.,0.));
#404=DIRECTION('center_axis',(0.,-1.,0.));
#405=DIRECTION('ref_axis',(1.,0.,0.));
#406=DIRECTION('',(0.447213595499958,0.894427190999916,5.47678698264202E-17));
#407=DIRECTION('center_axis',(0.,1.,0.));
#408=DIRECTION('ref_axis',(0.,0.,1.));
#409=DIRECTION('center_axis',(0.,-1.,0.));
#410=DIRECTION('ref_axis',(1.,0.,0.));
#411=DIRECTION('center_axis',(0.,-1.,0.));
#412=DIRECTION('ref_axis',(1.,0.,0.));
#413=DIRECTION('center_axis',(0.,-1.,0.));
#414=DIRECTION('ref_axis',(1.,0.,0.));
#415=DIRECTION('center_axis',(0.,-1.,0.));
#416=DIRECTION('ref_axis',(1.,0.,0.));
#417=DIRECTION('center_axis',(0.,-1.,0.));
#418=DIRECTION('ref_axis',(1.,0.,0.));
#419=DIRECTION('',(0.,1.,0.));
#420=DIRECTION('center_axis',(0.,1.,0.));
#421=DIRECTION('ref_axis',(0.,0.,1.));
#422=DIRECTION('center_axis',(0.,-1.,0.));
#423=DIRECTION('ref_axis',(1.,0.,0.));
#424=DIRECTION('center_axis',(0.,-1.,0.));
#425=DIRECTION('ref_axis',(1.,0.,0.));
#426=DIRECTION('center_axis',(0.,-1.,0.));
#427=DIRECTION('ref_axis',(1.,0.,0.));
#428=DIRECTION('center_axis',(0.,-1.,0.));
#429=DIRECTION('ref_axis',(1.,0.,0.));
#430=DIRECTION('center_axis',(0.,-1.,0.));
#431=DIRECTION('ref_axis',(1.,0.,0.));
#432=DIRECTION('',(0.,1.,0.));
#433=DIRECTION('center_axis',(0.,1.,0.));
#434=DIRECTION('ref_axis',(0.,0.,1.));
#435=DIRECTION('center_axis',(0.,-1.,0.));
#436=DIRECTION('ref_axis',(1.,0.,0.));
#437=DIRECTION('center_axis',(0.,-1.,0.));
#438=DIRECTION('ref_axis',(1.,0.,0.));
#439=DIRECTION('center_axis',(0.,-1.,0.));
#440=DIRECTION('ref_axis',(0.,0.,-1.));
#441=DIRECTION('center_axis',(0.,-1.,0.));
#442=DIRECTION('ref_axis',(1.,0.,0.));
#443=DIRECTION('center_axis',(0.,-1.,0.));
#444=DIRECTION('ref_axis',(1.,0.,0.));
#445=DIRECTION('center_axis',(0.,-1.,0.));
#446=DIRECTION('ref_axis',(1.,0.,0.));
#447=DIRECTION('center_axis',(-1.,0.,-1.22464679914735E-16));
#448=DIRECTION('ref_axis',(-1.22464679914735E-16,0.,1.));
#449=DIRECTION('center_axis',(0.,-1.,0.));
#450=DIRECTION('ref_axis',(1.,0.,0.));
#451=DIRECTION('center_axis',(0.,-1.,0.));
#452=DIRECTION('ref_axis',(1.,0.,0.));
#453=DIRECTION('center_axis',(0.,-1.,0.));
#454=DIRECTION('ref_axis',(1.,0.,0.));
#455=DIRECTION('',(0.,1.,0.));
#456=DIRECTION('center_axis',(0.,-1.,0.));
#457=DIRECTION('ref_axis',(1.,0.,0.));
#458=DIRECTION('center_axis',(0.,-1.,0.));
#459=DIRECTION('ref_axis',(0.,0.,-1.));
#460=DIRECTION('center_axis',(0.,-1.,0.));
#461=DIRECTION('ref_axis',(1.,0.,0.));
#462=DIRECTION('center_axis',(0.,-1.,0.));
#463=DIRECTION('ref_axis',(1.,0.,0.));
#464=DIRECTION('center_axis',(0.,-1.,0.));
#465=DIRECTION('ref_axis',(1.,0.,0.));
#466=DIRECTION('center_axis',(-1.,0.,-1.22464679914735E-16));
#467=DIRECTION('ref_axis',(-1.22464679914735E-16,0.,1.));
#468=DIRECTION('center_axis',(0.,1.,0.));
#469=DIRECTION('ref_axis',(1.,0.,0.));
#470=DIRECTION('center_axis',(0.,-1.,0.));
#471=DIRECTION('ref_axis',(1.,0.,0.));
#472=DIRECTION('center_axis',(0.,-1.,0.));
#473=DIRECTION('ref_axis',(1.,0.,0.));
#474=DIRECTION('',(-0.939692620785908,0.342020143325669,-1.15079156022785E-16));
#475=DIRECTION('center_axis',(0.,-1.,0.));
#476=DIRECTION('ref_axis',(0.,0.,-1.));
#477=DIRECTION('axis',(0.,0.,1.));
#478=DIRECTION('refdir',(1.,0.,0.));
#479=DIRECTION('center_axis',(0.,0.,-1.));
#480=DIRECTION('ref_axis',(-1.,0.,0.));
#481=DIRECTION('center_axis',(0.,0.,1.));
#482=DIRECTION('ref_axis',(-1.,0.,0.));
#483=DIRECTION('center_axis',(-1.22464679914735E-16,-1.,0.));
#484=DIRECTION('ref_axis',(1.,-1.22464679914735E-16,0.));
#485=DIRECTION('center_axis',(0.,0.,-1.));
#486=DIRECTION('ref_axis',(-1.,0.,0.));
#487=DIRECTION('center_axis',(0.,0.,-1.));
#488=DIRECTION('ref_axis',(-1.,0.,0.));
#489=DIRECTION('center_axis',(0.,0.,1.));
#490=DIRECTION('ref_axis',(1.,0.,0.));
#491=DIRECTION('center_axis',(0.,0.,1.));
#492=DIRECTION('ref_axis',(-1.,0.,0.));
#493=DIRECTION('center_axis',(0.,0.,1.));
#494=DIRECTION('ref_axis',(-1.,0.,0.));
#495=DIRECTION('',(0.,0.,-1.));
#496=DIRECTION('center_axis',(0.,0.,-1.));
#497=DIRECTION('ref_axis',(-1.,0.,0.));
#498=DIRECTION('center_axis',(0.,0.,1.));
#499=DIRECTION('ref_axis',(1.,0.,0.));
#500=DIRECTION('center_axis',(0.,0.,-1.));
#501=DIRECTION('ref_axis',(-1.,0.,0.));
#502=DIRECTION('center_axis',(1.22464679914735E-16,-1.,0.));
#503=DIRECTION('ref_axis',(-1.,-1.22464679914735E-16,0.));
#504=DIRECTION('center_axis',(0.,0.,-1.));
#505=DIRECTION('ref_axis',(-1.,0.,0.));
#506=DIRECTION('center_axis',(0.,0.,1.));
#507=DIRECTION('ref_axis',(1.,0.,0.));
#508=DIRECTION('',(0.,0.,1.));
#509=DIRECTION('',(1.,0.,0.));
#510=DIRECTION('',(0.,0.,1.));
#511=DIRECTION('',(1.,0.,0.));
#512=CARTESIAN_POINT('',(0.,0.,0.));
#513=CARTESIAN_POINT('',(0.,0.,0.));
#514=CARTESIAN_POINT('Origin',(20.5,27.5,0.));
#515=CARTESIAN_POINT('',(20.5,27.5,0.));
#516=CARTESIAN_POINT('',(-20.5,27.5,-2.51052593825207E-15));
#517=CARTESIAN_POINT('Origin',(-1.51656841987434E-16,27.5,0.));
#518=CARTESIAN_POINT('Origin',(-1.51656841987434E-16,27.5,0.));
#519=CARTESIAN_POINT('Origin',(-1.51656841987434E-16,24.5,0.));
#520=CARTESIAN_POINT('',(23.5,21.5,0.));
#521=CARTESIAN_POINT('',(-23.5,21.5,-2.87791997799628E-15));
#522=CARTESIAN_POINT('Origin',(-1.51656841987434E-16,21.5,0.));
#523=CARTESIAN_POINT('Origin',(-1.51656841987434E-16,21.5,0.));
#524=CARTESIAN_POINT('',(-22.,24.5,-2.69422295812418E-15));
#525=CARTESIAN_POINT('Origin',(25.,21.5,0.));
#526=CARTESIAN_POINT('',(25.,21.5,0.));
#527=CARTESIAN_POINT('',(-25.,21.5,-3.06161699786838E-15));
#528=CARTESIAN_POINT('Origin',(-1.51656841987434E-16,21.5,0.));
#529=CARTESIAN_POINT('Origin',(-1.51656841987434E-16,21.5,0.));
#530=CARTESIAN_POINT('Origin',(-1.51656841987434E-16,18.,0.));
#531=CARTESIAN_POINT('',(25.,14.5,0.));
#532=CARTESIAN_POINT('',(-25.,14.5,-3.06161699786838E-15));
#533=CARTESIAN_POINT('Origin',(-1.51656841987434E-16,14.5,0.));
#534=CARTESIAN_POINT('Origin',(-1.51656841987434E-16,14.5,0.));
#535=CARTESIAN_POINT('',(-25.,18.,-3.06161699786838E-15));
#536=CARTESIAN_POINT('Origin',(33.5,14.5,0.));
#537=CARTESIAN_POINT('',(33.5,14.5,0.));
#538=CARTESIAN_POINT('',(-33.5,14.5,-4.10256677714363E-15));
#539=CARTESIAN_POINT('Origin',(-1.51656841987434E-16,14.5,0.));
#540=CARTESIAN_POINT('Origin',(-1.51656841987434E-16,14.5,0.));
#541=CARTESIAN_POINT('Origin',(-1.51656841987434E-16,13.5,0.));
#542=CARTESIAN_POINT('',(33.5,12.5,0.));
#543=CARTESIAN_POINT('',(-33.5,12.5,-4.10256677714363E-15));
#544=CARTESIAN_POINT('Origin',(-1.51656841987434E-16,12.5,0.));
#545=CARTESIAN_POINT('Origin',(-1.51656841987434E-16,12.5,0.));
#546=CARTESIAN_POINT('',(-33.5,13.5,-4.10256677714363E-15));
#547=CARTESIAN_POINT('Origin',(48.6,12.5,0.));
#548=CARTESIAN_POINT('',(48.6,12.5,0.));
#549=CARTESIAN_POINT('',(-6.10344028584357E-15,12.5,48.6));
#550=CARTESIAN_POINT('Origin',(-1.51656841987434E-16,12.5,0.));
#551=CARTESIAN_POINT('Origin',(-1.51656841987434E-16,12.5,0.));
#552=CARTESIAN_POINT('Origin',(-1.51656841987434E-16,10.5,0.));
#553=CARTESIAN_POINT('',(50.6,10.5,0.));
#554=CARTESIAN_POINT('',(-6.34836964567304E-15,10.5,50.6));
#555=CARTESIAN_POINT('Origin',(-1.51656841987434E-16,10.5,0.));
#556=CARTESIAN_POINT('',(-50.6,10.5,-6.19671280368561E-15));
#557=CARTESIAN_POINT('Origin',(-1.51656841987434E-16,10.5,0.));
#558=CARTESIAN_POINT('Origin',(-1.51656841987434E-16,10.5,0.));
#559=CARTESIAN_POINT('Origin',(-6.10344028584357E-15,10.5,48.6));
#560=CARTESIAN_POINT('Origin',(-1.51656841987434E-16,1.10243499372994,0.));
#561=CARTESIAN_POINT('',(50.6,-8.29513001254011,0.));
#562=CARTESIAN_POINT('',(-6.34836964567304E-15,-8.29513001254011,50.6));
#563=CARTESIAN_POINT('Origin',(-1.51656841987434E-16,-8.29513001254011,
0.));
#564=CARTESIAN_POINT('',(-50.6,-8.29513001254011,-6.19671280368561E-15));
#565=CARTESIAN_POINT('Origin',(-1.51656841987434E-16,-8.29513001254011,
0.));
#566=CARTESIAN_POINT('',(-50.6,1.10243499372994,-6.19671280368561E-15));
#567=CARTESIAN_POINT('Origin',(-1.51656841987434E-16,-8.29513001254011,
0.));
#568=CARTESIAN_POINT('Origin',(-1.51656841987434E-16,-8.29513001254011,
0.));
#569=CARTESIAN_POINT('',(47.9680805733027,-12.0539004956837,0.));
#570=CARTESIAN_POINT('',(-6.02605247552118E-15,-12.0539004956837,47.9680805733027));
#571=CARTESIAN_POINT('Origin',(-1.51656841987434E-16,-12.0539004956837,
0.));
#572=CARTESIAN_POINT('',(-47.9680805733027,-12.0539004956837,-5.87439563353375E-15));
#573=CARTESIAN_POINT('Origin',(-1.51656841987434E-16,-12.0539004956837,
0.));
#574=CARTESIAN_POINT('Origin',(-1.51656841987434E-16,-12.0539004956837,
0.));
#575=CARTESIAN_POINT('Origin',(-5.8585109260141E-15,-8.29513001254011,46.6));
#576=CARTESIAN_POINT('Origin',(-1.51656841987434E-16,-13.7769502478419,
0.));
#577=CARTESIAN_POINT('',(38.5,-15.5,0.));
#578=CARTESIAN_POINT('',(-38.5,-15.5,-4.71489017671731E-15));
#579=CARTESIAN_POINT('Origin',(-1.51656841987434E-16,-15.5,0.));
#580=CARTESIAN_POINT('Origin',(-1.51656841987434E-16,-15.5,0.));
#581=CARTESIAN_POINT('',(-43.2340402866513,-13.7769502478419,-5.29464290512553E-15));
#582=CARTESIAN_POINT('Origin',(-7.105427357601E-15,-15.5,0.));
#583=CARTESIAN_POINT('',(0.,0.,0.));
#584=CARTESIAN_POINT('Origin',(0.,0.,-13.));
#585=CARTESIAN_POINT('',(16.5,0.,-15.));
#586=CARTESIAN_POINT('Origin',(0.,0.,-15.));
#587=CARTESIAN_POINT('',(18.5,0.,-13.));
#588=CARTESIAN_POINT('Origin',(16.5,-2.02066721859313E-15,-13.));
#589=CARTESIAN_POINT('',(-18.5,-2.2655965784226E-15,-13.));
#590=CARTESIAN_POINT('Origin',(0.,0.,-13.));
#591=CARTESIAN_POINT('Origin',(0.,0.,-13.));
#592=CARTESIAN_POINT('Origin',(0.,0.,0.));
#593=CARTESIAN_POINT('',(18.5,0.,13.));
#594=CARTESIAN_POINT('',(-18.5,-2.2655965784226E-15,13.));
#595=CARTESIAN_POINT('Origin',(0.,0.,13.));
#596=CARTESIAN_POINT('Origin',(0.,0.,13.));
#597=CARTESIAN_POINT('',(-18.5,-2.2655965784226E-15,0.));
#598=CARTESIAN_POINT('Origin',(0.,0.,-15.));
#599=CARTESIAN_POINT('Origin',(0.,0.,13.));
#600=CARTESIAN_POINT('',(16.5,0.,15.));
#601=CARTESIAN_POINT('',(-16.5,-2.02066721859313E-15,15.));
#602=CARTESIAN_POINT('Origin',(0.,0.,15.));
#603=CARTESIAN_POINT('Origin',(-16.5,-2.02066721859313E-15,13.));
#604=CARTESIAN_POINT('Origin',(0.,0.,15.));
#605=CARTESIAN_POINT('Origin',(0.,0.,15.));
#606=CARTESIAN_POINT('',(0.,0.,0.));
#607=CARTESIAN_POINT('',(0.,0.,0.));
#608=UNCERTAINTY_MEASURE_WITH_UNIT(LENGTH_MEASURE(0.01),#616,
'DISTANCE_ACCURACY_VALUE',
'Maximum model space distance between geometric entities at asserted c
onnectivities');
#609=UNCERTAINTY_MEASURE_WITH_UNIT(LENGTH_MEASURE(0.01),#616,
'DISTANCE_ACCURACY_VALUE',
'Maximum model space distance between geometric entities at asserted c
onnectivities');
#610=UNCERTAINTY_MEASURE_WITH_UNIT(LENGTH_MEASURE(0.01),#616,
'DISTANCE_ACCURACY_VALUE',
'Maximum model space distance between geometric entities at asserted c
onnectivities');
#611=UNCERTAINTY_MEASURE_WITH_UNIT(LENGTH_MEASURE(0.01),#616,
'DISTANCE_ACCURACY_VALUE',
'Maximum model space distance between geometric entities at asserted c
onnectivities');
#612=(
GEOMETRIC_REPRESENTATION_CONTEXT(3)
GLOBAL_UNCERTAINTY_ASSIGNED_CONTEXT((#608))
GLOBAL_UNIT_ASSIGNED_CONTEXT((#616,#618,#619))
REPRESENTATION_CONTEXT('','3D')
);
#613=(
GEOMETRIC_REPRESENTATION_CONTEXT(3)
GLOBAL_UNCERTAINTY_ASSIGNED_CONTEXT((#609))
GLOBAL_UNIT_ASSIGNED_CONTEXT((#616,#618,#619))
REPRESENTATION_CONTEXT('','3D')
);
#614=(
GEOMETRIC_REPRESENTATION_CONTEXT(3)
GLOBAL_UNCERTAINTY_ASSIGNED_CONTEXT((#610))
GLOBAL_UNIT_ASSIGNED_CONTEXT((#616,#618,#619))
REPRESENTATION_CONTEXT('','3D')
);
#615=(
GEOMETRIC_REPRESENTATION_CONTEXT(3)
GLOBAL_UNCERTAINTY_ASSIGNED_CONTEXT((#611))
GLOBAL_UNIT_ASSIGNED_CONTEXT((#616,#618,#619))
REPRESENTATION_CONTEXT('','3D')
);
#616=(
LENGTH_UNIT()
NAMED_UNIT(*)
SI_UNIT(.MILLI.,.METRE.)
);
#617=(
LENGTH_UNIT()
NAMED_UNIT(*)
SI_UNIT($,.METRE.)
);
#618=(
NAMED_UNIT(*)
PLANE_ANGLE_UNIT()
SI_UNIT($,.RADIAN.)
);
#619=(
NAMED_UNIT(*)
SI_UNIT($,.STERADIAN.)
SOLID_ANGLE_UNIT()
);
#620=SHAPE_DEFINITION_REPRESENTATION(#623,#628);
#621=SHAPE_DEFINITION_REPRESENTATION(#624,#629);
#622=SHAPE_DEFINITION_REPRESENTATION(#625,#630);
#623=PRODUCT_DEFINITION_SHAPE('',$,#632);
#624=PRODUCT_DEFINITION_SHAPE('',$,#633);
#625=PRODUCT_DEFINITION_SHAPE('',$,#634);
#626=PRODUCT_DEFINITION_SHAPE($,$,#17);
#627=PRODUCT_DEFINITION_SHAPE($,$,#18);
#628=SHAPE_REPRESENTATION('',(#332,#388,#389),#612);
#629=SHAPE_REPRESENTATION('',(#333),#613);
#630=SHAPE_REPRESENTATION('',(#373),#614);
#631=PRODUCT_DEFINITION_CONTEXT('part definition',#642,'design');
#632=PRODUCT_DEFINITION('EBL-4059','EBL-4059',#635,#631);
#633=PRODUCT_DEFINITION('Component1','Component1',#636,#631);
#634=PRODUCT_DEFINITION('Component2','Component2',#637,#631);
#635=PRODUCT_DEFINITION_FORMATION('',$,#644);
#636=PRODUCT_DEFINITION_FORMATION('',$,#645);
#637=PRODUCT_DEFINITION_FORMATION('',$,#646);
#638=PRODUCT_RELATED_PRODUCT_CATEGORY('EBL-4059','EBL-4059',(#644));
#639=PRODUCT_RELATED_PRODUCT_CATEGORY('Component1','Component1',(#645));
#640=PRODUCT_RELATED_PRODUCT_CATEGORY('Component2','Component2',(#646));
#641=APPLICATION_PROTOCOL_DEFINITION('international standard',
'automotive_design',2009,#642);
#642=APPLICATION_CONTEXT(
'Core Data for Automotive Mechanical Design Process');
#643=PRODUCT_CONTEXT('part definition',#642,'mechanical');
#644=PRODUCT('EBL-4059','EBL-4059',$,(#643));
#645=PRODUCT('Component1','Component1',$,(#643));
#646=PRODUCT('Component2','Component2',$,(#643));
#647=PRESENTATION_STYLE_ASSIGNMENT((#648));
#648=SURFACE_STYLE_USAGE(.BOTH.,#649);
#649=SURFACE_SIDE_STYLE('',(#650));
#650=SURFACE_STYLE_FILL_AREA(#651);
#651=FILL_AREA_STYLE('Steel - Satin',(#652));
#652=FILL_AREA_STYLE_COLOUR('Steel - Satin',#653);
#653=COLOUR_RGB('Steel - Satin',0.627450980392157,0.627450980392157,0.627450980392157);
ENDSEC;
END-ISO-10303-21;
