  0
SECTION
  2
HEADER
  9
$LIMMIN
 10
373.699615
 20
113.363136
  9
$LIMMAX
 10
787.922485
 20
240.200012
  9
$EXTMIN
 10
373.699615
 20
113.363136
  9
$EXTMAX
 10
787.922485
 20
240.200012
  0
ENDSEC
  0
SECTION
  2
TABLES
  0
TABLE
  2
LTYPE
 70
     3
  0
LTYPE
  2
CONTINUOUS
 70
    64
  3
Ausgezogene Linie
 72
    65
 73
     0
 40
0.0
  0
LTYPE
  2
DASHED
 70
    64
  3
__ __ __ __ __ __ __ __ __ __ __ __ __ __ __
 72
    65
 73
     2
 40
0.75
 49
0.5
 49
-0.25
  0
LTYPE
  2
DASHDOT
 70
    64
  3
__ . __ . __ . __ . __ . __ . __ . __ . __ . __
 72
    65
 73
     4
 40
1.0
 49
0.5
 49
-0.25
 49
0.0
 49
-0.25
  0
ENDTAB
  0
TABLE
  2
LAYER
 70
     4
  0
LAYER
  2
LC-003-002-----0
 70
    64
 62
     7
  6
CONTINUOUS
  0
LAYER
  2
LC-004-006-----0
 70
    64
 62
     7
  6
CONTINUOUS
  0
LAYER
  2
LC-006-012-----0
 70
    64
 62
     7
  6
CONTINUOUS
  0
LAYER
  2
LC-005-002-RND-0
 70
    64
 62
     7
  6
CONTINUOUS
  0
ENDTAB
  0
TABLE
  2
STYLE
 70
     1
  0
STYLE
  2
TXT8
 70
    64
 40
0.0
 41
1.0
 50
0.0
 71
     0
 42
3.500000
  3
TXT8
  4

  0
ENDTAB
  0
ENDSEC
  0
SECTION
  2
BLOCKS
  0
ENDSEC
  0
SECTION
  2
ENTITIES
  0
LINE
  8
LC-004-006-----0
 62
     2
  6
DASHDOT
 10
373.699615
 20
177.322968
 11
625.797485
 21
177.322968
  0
LINE
  8
LC-003-002-----0
 62
     1
  6
CONTINUOUS
 10
403.417419
 20
214.822968
 11
489.917419
 21
214.822968
  0
LINE
  8
LC-003-002-----0
 62
     1
  6
CONTINUOUS
 10
403.417419
 20
139.822968
 11
489.917419
 21
139.822968
  0
LINE
  8
LC-003-002-----0
 62
     1
  6
CONTINUOUS
 10
503.417419
 20
233.322968
 11
492.417419
 21
233.322968
  0
LINE
  8
LC-003-002-----0
 62
     1
  6
CONTINUOUS
 10
492.417419
 20
121.322968
 11
503.417419
 21
121.322968
  0
LINE
  8
LC-003-002-----0
 62
     1
  6
CONTINUOUS
 10
401.917419
 20
213.322968
 11
401.917419
 21
141.322968
  0
LINE
  8
LC-003-002-----0
 62
     1
  6
CONTINUOUS
 10
491.417419
 20
232.322968
 11
491.417419
 21
122.322968
  0
LINE
  8
LC-003-002-----0
 62
     1
  6
CONTINUOUS
 10
593.917419
 20
213.322968
 11
593.917419
 21
141.322968
  0
LINE
  8
LC-003-002-----0
 62
     1
  6
CONTINUOUS
 10
504.417419
 20
122.322968
 11
504.417419
 21
232.322968
  0
LINE
  8
LC-003-002-----0
 62
     1
  6
CONTINUOUS
 10
380.408600
 20
202.322968
 11
401.917419
 21
202.322968
  0
LINE
  8
LC-003-002-----0
 62
     1
  6
CONTINUOUS
 10
378.434692
 20
152.322968
 11
401.917419
 21
152.322968
  0
LINE
  8
LC-005-002-RND-0
 62
     2
  6
CONTINUOUS
 10
378.434692
 20
152.322968
 11
380.746307
 21
161.009903
  0
LINE
  8
LC-005-002-RND-0
 62
     2
  6
CONTINUOUS
 10
380.746307
 20
161.009903
 11
379.370270
 21
174.889236
  0
LINE
  8
LC-005-002-RND-0
 62
     2
  6
CONTINUOUS
 10
379.370270
 20
174.889236
 11
381.339294
 21
189.495224
  0
LINE
  8
LC-005-002-RND-0
 62
     2
  6
CONTINUOUS
 10
381.339294
 20
189.495224
 11
380.408600
 21
202.322968
  0
LINE
  8
LC-005-002-RND-0
 62
     2
  6
CONTINUOUS
 10
620.641724
 20
152.322968
 11
621.571655
 21
161.824890
  0
LINE
  8
LC-005-002-RND-0
 62
     2
  6
CONTINUOUS
 10
621.571655
 20
161.824890
 11
619.517212
 21
173.858658
  0
LINE
  8
LC-005-002-RND-0
 62
     2
  6
CONTINUOUS
 10
619.517212
 20
173.858658
 11
620.811646
 21
190.708603
  0
LINE
  8
LC-005-002-RND-0
 62
     2
  6
CONTINUOUS
 10
620.811646
 20
190.708603
 11
619.222900
 21
202.322968
  0
LINE
  8
LC-006-012-----0
 62
     2
  6
DASHED
 10
401.917419
 20
202.322968
 11
593.917419
 21
202.322968
  0
LINE
  8
LC-003-002-----0
 62
     1
  6
CONTINUOUS
 10
593.917419
 20
202.322968
 11
619.222900
 21
202.322968
  0
LINE
  8
LC-006-012-----0
 62
     2
  6
DASHED
 10
401.917419
 20
152.322968
 11
593.917419
 21
152.322968
  0
LINE
  8
LC-003-002-----0
 62
     1
  6
CONTINUOUS
 10
593.917419
 20
152.322968
 11
620.641724
 21
152.322968
  0
LINE
  8
LC-003-002-----0
 62
     1
  6
CONTINUOUS
 10
505.917419
 20
214.822968
 11
592.417419
 21
214.822968
  0
LINE
  8
LC-003-002-----0
 62
     1
  6
CONTINUOUS
 10
505.917419
 20
139.822968
 11
592.417419
 21
139.822968
  0
LINE
  8
LC-003-002-----0
 62
     1
  6
CONTINUOUS
 10
505.917419
 20
214.822968
 11
505.917419
 21
139.822968
  0
LINE
  8
LC-003-002-----0
 62
     1
  6
CONTINUOUS
 10
489.917419
 20
214.822968
 11
489.917419
 21
139.822968
  0
LINE
  8
LC-003-002-----0
 62
     1
  6
CONTINUOUS
 10
489.917419
 20
213.322968
 11
491.417419
 21
213.322968
  0
LINE
  8
LC-003-002-----0
 62
     1
  6
CONTINUOUS
 10
489.917419
 20
141.322968
 11
491.417419
 21
141.322968
  0
LINE
  8
LC-003-002-----0
 62
     1
  6
CONTINUOUS
 10
504.417419
 20
213.322968
 11
505.917419
 21
213.322968
  0
LINE
  8
LC-003-002-----0
 62
     1
  6
CONTINUOUS
 10
504.417419
 20
141.322968
 11
505.917419
 21
141.322968
  0
LINE
  8
LC-003-002-----0
 62
     1
  6
CONTINUOUS
 10
491.417419
 20
122.322968
 11
492.417419
 21
121.322968
  0
LINE
  8
LC-003-002-----0
 62
     1
  6
CONTINUOUS
 10
492.417419
 20
233.322968
 11
491.417419
 21
232.322968
  0
LINE
  8
LC-003-002-----0
 62
     1
  6
CONTINUOUS
 10
492.417419
 20
121.322968
 11
492.417419
 21
233.322968
  0
LINE
  8
LC-003-002-----0
 62
     1
  6
CONTINUOUS
 10
504.417419
 20
232.322968
 11
503.417419
 21
233.322968
  0
LINE
  8
LC-003-002-----0
 62
     1
  6
CONTINUOUS
 10
503.417419
 20
121.322968
 11
504.417419
 21
122.322968
  0
LINE
  8
LC-003-002-----0
 62
     1
  6
CONTINUOUS
 10
503.417419
 20
233.322968
 11
503.417419
 21
121.322968
  0
ARC
  8
LC-003-002-----0
 62
     1
  6
CONTINUOUS
 10
403.417419
 20
213.322968
 40
1.500000
 50
90.000003
 51
180.000009
  0
ARC
  8
LC-003-002-----0
 62
     1
  6
CONTINUOUS
 10
403.417419
 20
141.322968
 40
1.500000
 50
180.000009
 51
269.999997
  0
ARC
  8
LC-003-002-----0
 62
     1
  6
CONTINUOUS
 10
592.417419
 20
141.322968
 40
1.500000
 50
269.999997
 51
0.000000
  0
ARC
  8
LC-003-002-----0
 62
     1
  6
CONTINUOUS
 10
592.417419
 20
213.322968
 40
1.500000
 50
0.000000
 51
90.000003
  0
LINE
  8
LC-004-006-----0
 62
     2
  6
DASHDOT
 10
662.090576
 20
177.322968
 11
787.922485
 21
177.322968
  0
LINE
  8
LC-004-006-----0
 62
     2
  6
DASHDOT
 10
723.580750
 20
240.200012
 11
723.580750
 21
113.363136
  0
CIRCLE
  8
LC-003-002-----0
 62
     1
  6
CONTINUOUS
 10
723.580750
 20
177.322968
 40
25.000000
  0
CIRCLE
  8
LC-003-002-----0
 62
     1
  6
CONTINUOUS
 10
723.580750
 20
177.322968
 40
37.500000
  0
CIRCLE
  8
LC-003-002-----0
 62
     1
  6
CONTINUOUS
 10
723.580750
 20
177.322968
 40
56.000000
  0
CIRCLE
  8
LC-004-006-----0
 62
     2
  6
DASHDOT
 10
723.580750
 20
177.322968
 40
47.000000
  0
CIRCLE
  8
LC-003-002-----0
 62
     1
  6
CONTINUOUS
 10
723.580750
 20
224.322968
 40
4.500000
  0
CIRCLE
  8
LC-003-002-----0
 62
     1
  6
CONTINUOUS
 10
723.580750
 20
224.322968
 40
7.500000
  0
CIRCLE
  8
LC-003-002-----0
 62
     1
  6
CONTINUOUS
 10
676.580750
 20
177.322968
 40
7.500000
  0
CIRCLE
  8
LC-003-002-----0
 62
     1
  6
CONTINUOUS
 10
676.580750
 20
177.322968
 40
4.500000
  0
CIRCLE
  8
LC-003-002-----0
 62
     1
  6
CONTINUOUS
 10
723.580750
 20
130.322968
 40
7.500000
  0
CIRCLE
  8
LC-003-002-----0
 62
     1
  6
CONTINUOUS
 10
723.580750
 20
130.322968
 40
4.500000
  0
CIRCLE
  8
LC-003-002-----0
 62
     1
  6
CONTINUOUS
 10
770.580750
 20
177.322968
 40
4.500000
  0
CIRCLE
  8
LC-003-002-----0
 62
     1
  6
CONTINUOUS
 10
770.580750
 20
177.322968
 40
7.500000
  0
LINE
  8
LC-004-006-----0
 62
     2
  6
DASHDOT
 10
509.530853
 20
224.322968
 11
486.057495
 21
224.322968
  0
LINE
  8
LC-006-012-----0
 62
     2
  6
DASHED
 10
500.417419
 20
231.822968
 11
491.417419
 21
231.822968
  0
LINE
  8
LC-006-012-----0
 62
     2
  6
DASHED
 10
504.417419
 20
228.822968
 11
500.417419
 21
228.822968
  0
LINE
  8
LC-006-012-----0
 62
     2
  6
DASHED
 10
500.417419
 20
231.822968
 11
500.417419
 21
216.822968
  0
LINE
  8
LC-006-012-----0
 62
     2
  6
DASHED
 10
500.417419
 20
216.822968
 11
491.417419
 21
216.822968
  0
LINE
  8
LC-006-012-----0
 62
     2
  6
DASHED
 10
504.417419
 20
219.822968
 11
500.417419
 21
219.822968
  0
LINE
  8
LC-004-006-----0
 62
     2
  6
DASHDOT
 10
509.530853
 20
130.322968
 11
486.057495
 21
130.322968
  0
LINE
  8
LC-006-012-----0
 62
     2
  6
DASHED
 10
500.417419
 20
122.822968
 11
491.417419
 21
122.822968
  0
LINE
  8
LC-006-012-----0
 62
     2
  6
DASHED
 10
504.417419
 20
125.822968
 11
500.417419
 21
125.822968
  0
LINE
  8
LC-006-012-----0
 62
     2
  6
DASHED
 10
500.417419
 20
122.822968
 11
500.417419
 21
137.822968
  0
LINE
  8
LC-006-012-----0
 62
     2
  6
DASHED
 10
500.417419
 20
137.822968
 11
491.417419
 21
137.822968
  0
LINE
  8
LC-006-012-----0
 62
     2
  6
DASHED
 10
504.417419
 20
134.822968
 11
500.417419
 21
134.822968
  0
LINE
  8
LC-006-012-----0
 62
     2
  6
DASHED
 10
500.417419
 20
184.822968
 11
500.417419
 21
169.822968
  0
LINE
  8
LC-006-012-----0
 62
     2
  6
DASHED
 10
500.417419
 20
169.822968
 11
491.417419
 21
169.822968
  0
LINE
  8
LC-006-012-----0
 62
     2
  6
DASHED
 10
504.417419
 20
172.822968
 11
500.417419
 21
172.822968
  0
LINE
  8
LC-006-012-----0
 62
     2
  6
DASHED
 10
500.417419
 20
184.822968
 11
491.417419
 21
184.822968
  0
LINE
  8
LC-006-012-----0
 62
     2
  6
DASHED
 10
504.417419
 20
181.822968
 11
500.417419
 21
181.822968
  0
CIRCLE
  8
LC-003-002-----0
 62
     1
  6
CONTINUOUS
 10
723.580750
 20
177.322968
 40
55.000000
  0
ENDSEC
  0
EOF
