  0
SECTION
  2
HEADER
  9
$LIMMIN
 10
97.337662
 20
519.224487
  9
$LIMMAX
 10
236.328079
 20
555.377441
  9
$EXTMIN
 10
97.337662
 20
519.224487
  9
$EXTMAX
 10
236.328079
 20
555.377441
  0
ENDSEC
  0
SECTION
  2
TABLES
  0
TABLE
  2
LTYPE
 70
     3
  0
LTYPE
  2
CONTINUOUS
 70
    64
  3
Ausgezogene Linie
 72
    65
 73
     0
 40
0.0
  0
LTYPE
  2
DASHED
 70
    64
  3
__ __ __ __ __ __ __ __ __ __ __ __ __ __ __
 72
    65
 73
     2
 40
0.75
 49
0.5
 49
-0.25
  0
LTYPE
  2
DASHDOT
 70
    64
  3
__ . __ . __ . __ . __ . __ . __ . __ . __ . __
 72
    65
 73
     4
 40
1.0
 49
0.5
 49
-0.25
 49
0.0
 49
-0.25
  0
ENDTAB
  0
TABLE
  2
LAYER
 70
     4
  0
LAYER
  2
LC-003-002-----0
 70
    64
 62
     7
  6
CONTINUOUS
  0
LAYER
  2
LC-004-006-----0
 70
    64
 62
     7
  6
CONTINUOUS
  0
LAYER
  2
LC-006-012-----0
 70
    64
 62
     7
  6
CONTINUOUS
  0
LAYER
  2
LC-005-002-RND-0
 70
    64
 62
     7
  6
CONTINUOUS
  0
ENDTAB
  0
TABLE
  2
STYLE
 70
     1
  0
STYLE
  2
TXT8
 70
    64
 40
0.0
 41
1.0
 50
0.0
 71
     0
 42
3.500000
  3
TXT8
  4

  0
ENDTAB
  0
ENDSEC
  0
SECTION
  2
BLOCKS
  0
ENDSEC
  0
SECTION
  2
ENTITIES
  0
LINE
  8
LC-004-006-----0
 62
     2
  6
DASHDOT
 10
97.337662
 20
537.598022
 11
172.840881
 21
537.598022
  0
LINE
  8
LC-003-002-----0
 62
     1
  6
CONTINUOUS
 10
132.117264
 20
553.598022
 11
136.117264
 21
553.598022
  0
LINE
  8
LC-003-002-----0
 62
     1
  6
CONTINUOUS
 10
136.117264
 20
521.598022
 11
132.117264
 21
521.598022
  0
LINE
  8
LC-003-002-----0
 62
     1
  6
CONTINUOUS
 10
111.617256
 20
545.598022
 11
131.117264
 21
545.598022
  0
LINE
  8
LC-003-002-----0
 62
     1
  6
CONTINUOUS
 10
111.617256
 20
529.598022
 11
131.117264
 21
529.598022
  0
LINE
  8
LC-003-002-----0
 62
     1
  6
CONTINUOUS
 10
111.117256
 20
545.098022
 11
111.117256
 21
530.098022
  0
LINE
  8
LC-003-002-----0
 62
     1
  6
CONTINUOUS
 10
131.617264
 20
553.098022
 11
131.617264
 21
522.098022
  0
LINE
  8
LC-003-002-----0
 62
     1
  6
CONTINUOUS
 10
136.617264
 20
553.098022
 11
136.617264
 21
522.098022
  0
LINE
  8
LC-003-002-----0
 62
     1
  6
CONTINUOUS
 10
157.117264
 20
545.098022
 11
157.117264
 21
530.098022
  0
LINE
  8
LC-003-002-----0
 62
     1
  6
CONTINUOUS
 10
137.117264
 20
545.598022
 11
156.617264
 21
545.598022
  0
LINE
  8
LC-003-002-----0
 62
     1
  6
CONTINUOUS
 10
137.117264
 20
529.598022
 11
156.617264
 21
529.598022
  0
LINE
  8
LC-003-002-----0
 62
     1
  6
CONTINUOUS
 10
99.006348
 20
541.598022
 11
111.117256
 21
541.598022
  0
LINE
  8
LC-003-002-----0
 62
     1
  6
CONTINUOUS
 10
99.014236
 20
533.598022
 11
111.117256
 21
533.598022
  0
LINE
  8
LC-005-002-RND-0
 62
     2
  6
CONTINUOUS
 10
99.014236
 20
533.598022
 11
99.358498
 21
535.039490
  0
LINE
  8
LC-005-002-RND-0
 62
     2
  6
CONTINUOUS
 10
99.358498
 20
535.039490
 11
98.917709
 21
539.403137
  0
LINE
  8
LC-005-002-RND-0
 62
     2
  6
CONTINUOUS
 10
98.917709
 20
539.403137
 11
99.006348
 21
541.598022
  0
LINE
  8
LC-005-002-RND-0
 62
     2
  6
CONTINUOUS
 10
171.217789
 20
533.598022
 11
170.996368
 21
535.234802
  0
LINE
  8
LC-005-002-RND-0
 62
     2
  6
CONTINUOUS
 10
170.996368
 20
535.234802
 11
171.084518
 21
539.142761
  0
LINE
  8
LC-005-002-RND-0
 62
     2
  6
CONTINUOUS
 10
171.084518
 20
539.142761
 11
170.715454
 21
541.598022
  0
LINE
  8
LC-006-012-----0
 62
     2
  6
DASHED
 10
111.117256
 20
541.598022
 11
157.117264
 21
541.598022
  0
LINE
  8
LC-003-002-----0
 62
     1
  6
CONTINUOUS
 10
157.117264
 20
541.598022
 11
170.715454
 21
541.598022
  0
LINE
  8
LC-006-012-----0
 62
     2
  6
DASHED
 10
111.117256
 20
533.598022
 11
157.117264
 21
533.598022
  0
LINE
  8
LC-003-002-----0
 62
     1
  6
CONTINUOUS
 10
157.117264
 20
533.598022
 11
171.217789
 21
533.598022
  0
LINE
  8
LC-004-006-----0
 62
     2
  6
DASHDOT
 10
199.609985
 20
537.598022
 11
236.328079
 21
537.598022
  0
LINE
  8
LC-004-006-----0
 62
     2
  6
DASHDOT
 10
218.239151
 20
555.377441
 11
218.239151
 21
519.224487
  0
CIRCLE
  8
LC-003-002-----0
 62
     1
  6
CONTINUOUS
 10
218.239151
 20
537.598022
 40
4.000000
  0
CIRCLE
  8
LC-003-002-----0
 62
     1
  6
CONTINUOUS
 10
218.239151
 20
537.598022
 40
8.000000
  0
CIRCLE
  8
LC-003-002-----0
 62
     1
  6
CONTINUOUS
 10
218.239151
 20
537.598022
 40
16.000000
  0
CIRCLE
  8
LC-004-006-----0
 62
     2
  6
DASHDOT
 10
218.239151
 20
537.598022
 40
12.000000
  0
CIRCLE
  8
LC-003-002-----0
 62
     1
  6
CONTINUOUS
 10
218.239151
 20
549.598022
 40
3.000000
  0
CIRCLE
  8
LC-003-002-----0
 62
     1
  6
CONTINUOUS
 10
218.239151
 20
549.598022
 40
1.800000
  0
CIRCLE
  8
LC-003-002-----0
 62
     1
  6
CONTINUOUS
 10
206.239151
 20
537.598022
 40
3.000000
  0
CIRCLE
  8
LC-003-002-----0
 62
     1
  6
CONTINUOUS
 10
206.239151
 20
537.598022
 40
1.800000
  0
CIRCLE
  8
LC-003-002-----0
 62
     1
  6
CONTINUOUS
 10
218.239151
 20
525.598022
 40
3.000000
  0
CIRCLE
  8
LC-003-002-----0
 62
     1
  6
CONTINUOUS
 10
218.239151
 20
525.598022
 40
1.800000
  0
CIRCLE
  8
LC-003-002-----0
 62
     1
  6
CONTINUOUS
 10
230.239151
 20
537.598022
 40
3.000000
  0
CIRCLE
  8
LC-003-002-----0
 62
     1
  6
CONTINUOUS
 10
230.239151
 20
537.598022
 40
1.800000
  0
LINE
  8
LC-004-006-----0
 62
     2
  6
DASHDOT
 10
138.857162
 20
549.598022
 11
129.534927
 21
549.598022
  0
LINE
  8
LC-006-012-----0
 62
     2
  6
DASHED
 10
135.117264
 20
552.598022
 11
131.617264
 21
552.598022
  0
LINE
  8
LC-006-012-----0
 62
     2
  6
DASHED
 10
136.617264
 20
551.398010
 11
135.117264
 21
551.398010
  0
LINE
  8
LC-006-012-----0
 62
     2
  6
DASHED
 10
135.117264
 20
552.598022
 11
135.117264
 21
546.598022
  0
LINE
  8
LC-006-012-----0
 62
     2
  6
DASHED
 10
135.117264
 20
546.598022
 11
131.617264
 21
546.598022
  0
LINE
  8
LC-006-012-----0
 62
     2
  6
DASHED
 10
136.617264
 20
547.798035
 11
135.117264
 21
547.798035
  0
LINE
  8
LC-004-006-----0
 62
     2
  6
DASHDOT
 10
138.857162
 20
525.598022
 11
129.534927
 21
525.598022
  0
LINE
  8
LC-006-012-----0
 62
     2
  6
DASHED
 10
135.117264
 20
522.598022
 11
131.617264
 21
522.598022
  0
LINE
  8
LC-006-012-----0
 62
     2
  6
DASHED
 10
136.617264
 20
523.798035
 11
135.117264
 21
523.798035
  0
LINE
  8
LC-006-012-----0
 62
     2
  6
DASHED
 10
135.117264
 20
522.598022
 11
135.117264
 21
528.598022
  0
LINE
  8
LC-006-012-----0
 62
     2
  6
DASHED
 10
135.117264
 20
528.598022
 11
131.617264
 21
528.598022
  0
LINE
  8
LC-006-012-----0
 62
     2
  6
DASHED
 10
136.617264
 20
527.398010
 11
135.117264
 21
527.398010
  0
LINE
  8
LC-006-012-----0
 62
     2
  6
DASHED
 10
135.117264
 20
534.598022
 11
131.617264
 21
534.598022
  0
LINE
  8
LC-006-012-----0
 62
     2
  6
DASHED
 10
136.617264
 20
535.798035
 11
135.117264
 21
535.798035
  0
LINE
  8
LC-006-012-----0
 62
     2
  6
DASHED
 10
136.617264
 20
535.798035
 11
135.117264
 21
535.798035
  0
LINE
  8
LC-006-012-----0
 62
     2
  6
DASHED
 10
136.617264
 20
539.398010
 11
135.117264
 21
539.398010
  0
LINE
  8
LC-006-012-----0
 62
     2
  6
DASHED
 10
135.117264
 20
540.598022
 11
131.617264
 21
540.598022
  0
LINE
  8
LC-006-012-----0
 62
     2
  6
DASHED
 10
135.117264
 20
540.598022
 11
135.117264
 21
534.598022
  0
LINE
  8
LC-003-002-----0
 62
     1
  6
CONTINUOUS
 10
137.117264
 20
545.598022
 11
137.117264
 21
529.598022
  0
LINE
  8
LC-003-002-----0
 62
     1
  6
CONTINUOUS
 10
131.117264
 20
545.598022
 11
131.117264
 21
529.598022
  0
LINE
  8
LC-003-002-----0
 62
     1
  6
CONTINUOUS
 10
131.117264
 20
545.098022
 11
131.617264
 21
545.098022
  0
LINE
  8
LC-003-002-----0
 62
     1
  6
CONTINUOUS
 10
131.117264
 20
530.098022
 11
131.617264
 21
530.098022
  0
LINE
  8
LC-003-002-----0
 62
     1
  6
CONTINUOUS
 10
136.617264
 20
545.098022
 11
137.117264
 21
545.098022
  0
LINE
  8
LC-003-002-----0
 62
     1
  6
CONTINUOUS
 10
136.617264
 20
530.098022
 11
137.117264
 21
530.098022
  0
LINE
  8
LC-003-002-----0
 62
     1
  6
CONTINUOUS
 10
132.117264
 20
521.598022
 11
131.617264
 21
522.098022
  0
LINE
  8
LC-003-002-----0
 62
     1
  6
CONTINUOUS
 10
132.117264
 20
553.598022
 11
131.617264
 21
553.098022
  0
LINE
  8
LC-003-002-----0
 62
     1
  6
CONTINUOUS
 10
132.117264
 20
521.598022
 11
132.117264
 21
553.598022
  0
LINE
  8
LC-003-002-----0
 62
     1
  6
CONTINUOUS
 10
136.117264
 20
553.598022
 11
136.617264
 21
553.098022
  0
LINE
  8
LC-003-002-----0
 62
     1
  6
CONTINUOUS
 10
136.617264
 20
522.098022
 11
136.117264
 21
521.598022
  0
LINE
  8
LC-003-002-----0
 62
     1
  6
CONTINUOUS
 10
136.117264
 20
553.598022
 11
136.117264
 21
521.598022
  0
ARC
  8
LC-003-002-----0
 62
     1
  6
CONTINUOUS
 10
111.617256
 20
545.098022
 40
0.500000
 50
90.000003
 51
180.000009
  0
ARC
  8
LC-003-002-----0
 62
     1
  6
CONTINUOUS
 10
111.617256
 20
530.098022
 40
0.500000
 50
180.000009
 51
269.999997
  0
ARC
  8
LC-003-002-----0
 62
     1
  6
CONTINUOUS
 10
156.617264
 20
530.098022
 40
0.500000
 50
269.999997
 51
0.000000
  0
ARC
  8
LC-003-002-----0
 62
     1
  6
CONTINUOUS
 10
156.617264
 20
545.098022
 40
0.500000
 50
0.000000
 51
90.000003
  0
CIRCLE
  8
LC-003-002-----0
 62
     1
  6
CONTINUOUS
 10
218.239151
 20
537.598022
 40
15.500000
  0
ENDSEC
  0
EOF
