  0
SECTION
  2
HEADER
  9
$LIMMIN
 10
117.995094
 20
402.249420
  9
$LIMMAX
 10
227.358231
 20
424.249420
  9
$EXTMIN
 10
117.995094
 20
402.249420
  9
$EXTMAX
 10
227.358231
 20
424.249420
  0
ENDSEC
  0
SECTION
  2
TABLES
  0
TABLE
  2
LTYPE
 70
     3
  0
LTYPE
  2
CONTINUOUS
 70
    64
  3
Ausgezogene Linie
 72
    65
 73
     0
 40
0.0
  0
LTYPE
  2
DASHED
 70
    64
  3
__ __ __ __ __ __ __ __ __ __ __ __ __ __ __
 72
    65
 73
     2
 40
0.75
 49
0.5
 49
-0.25
  0
LTYPE
  2
DASHDOT
 70
    64
  3
__ . __ . __ . __ . __ . __ . __ . __ . __ . __
 72
    65
 73
     4
 40
1.0
 49
0.5
 49
-0.25
 49
0.0
 49
-0.25
  0
ENDTAB
  0
TABLE
  2
LAYER
 70
     4
  0
LAYER
  2
LC-003-002-----0
 70
    64
 62
     7
  6
CONTINUOUS
  0
LAYER
  2
LC-004-006-----0
 70
    64
 62
     7
  6
CONTINUOUS
  0
LAYER
  2
LC-006-012-----0
 70
    64
 62
     7
  6
CONTINUOUS
  0
LAYER
  2
LC-007-004-----0
 70
    64
 62
     7
  6
CONTINUOUS
  0
ENDTAB
  0
TABLE
  2
STYLE
 70
     1
  0
STYLE
  2
TXT8
 70
    64
 40
0.0
 41
1.0
 50
0.0
 71
     0
 42
3.500000
  3
TXT8
  4

  0
ENDTAB
  0
ENDSEC
  0
SECTION
  2
BLOCKS
  0
ENDSEC
  0
SECTION
  2
ENTITIES
  0
LINE
  8
LC-004-006-----0
 62
     2
  6
DASHDOT
 10
117.995094
 20
413.249420
 11
227.358231
 21
413.249420
  0
LINE
  8
LC-003-002-----0
 62
     1
  6
CONTINUOUS
 10
144.774139
 20
424.249420
 11
151.724136
 21
424.249420
  0
LINE
  8
LC-003-002-----0
 62
     1
  6
CONTINUOUS
 10
144.774139
 20
402.249420
 11
151.724136
 21
402.249420
  0
LINE
  8
LC-003-002-----0
 62
     1
  6
CONTINUOUS
 10
144.024139
 20
423.499420
 11
144.024139
 21
402.999420
  0
LINE
  8
LC-003-002-----0
 62
     1
  6
CONTINUOUS
 10
205.024139
 20
423.499420
 11
205.024139
 21
402.999420
  0
LINE
  8
LC-003-002-----0
 62
     1
  6
CONTINUOUS
 10
120.958549
 20
419.249420
 11
144.024139
 21
419.249420
  0
LINE
  8
LC-003-002-----0
 62
     1
  6
CONTINUOUS
 10
120.777466
 20
407.249420
 11
144.024139
 21
407.249420
  0
LINE
  8
LC-007-004-----0
 62
     2
  6
CONTINUOUS
 10
120.777466
 20
407.249420
 11
121.935867
 21
410.428894
  0
LINE
  8
LC-007-004-----0
 62
     2
  6
CONTINUOUS
 10
121.935867
 20
410.428894
 11
120.401878
 21
416.653564
  0
LINE
  8
LC-007-004-----0
 62
     2
  6
CONTINUOUS
 10
120.401878
 20
416.653564
 11
120.958549
 21
419.249420
  0
LINE
  8
LC-007-004-----0
 62
     2
  6
CONTINUOUS
 10
223.560989
 20
407.249420
 11
224.435715
 21
409.794250
  0
LINE
  8
LC-007-004-----0
 62
     2
  6
CONTINUOUS
 10
224.435715
 20
409.794250
 11
222.729813
 21
416.272797
  0
LINE
  8
LC-007-004-----0
 62
     2
  6
CONTINUOUS
 10
222.729813
 20
416.272797
 11
222.729813
 21
419.249420
  0
LINE
  8
LC-006-012-----0
 62
     2
  6
DASHED
 10
144.024139
 20
419.249420
 11
205.024139
 21
419.249420
  0
LINE
  8
LC-003-002-----0
 62
     1
  6
CONTINUOUS
 10
205.024139
 20
419.249420
 11
222.729813
 21
419.249420
  0
LINE
  8
LC-006-012-----0
 62
     2
  6
DASHED
 10
144.024139
 20
407.249420
 11
205.024139
 21
407.249420
  0
LINE
  8
LC-003-002-----0
 62
     1
  6
CONTINUOUS
 10
205.024139
 20
407.249420
 11
223.560989
 21
407.249420
  0
LINE
  8
LC-003-002-----0
 62
     1
  6
CONTINUOUS
 10
196.024139
 20
402.249420
 11
196.024139
 21
424.249420
  0
LINE
  8
LC-003-002-----0
 62
     1
  6
CONTINUOUS
 10
197.324142
 20
402.249420
 11
197.324142
 21
424.249420
  0
LINE
  8
LC-003-002-----0
 62
     1
  6
CONTINUOUS
 10
153.024139
 20
402.249420
 11
153.024139
 21
424.249420
  0
LINE
  8
LC-003-002-----0
 62
     1
  6
CONTINUOUS
 10
151.724136
 20
402.249420
 11
151.724136
 21
424.249420
  0
LINE
  8
LC-003-002-----0
 62
     1
  6
CONTINUOUS
 10
197.324142
 20
424.249420
 11
204.274139
 21
424.249420
  0
LINE
  8
LC-003-002-----0
 62
     1
  6
CONTINUOUS
 10
196.024139
 20
423.749420
 11
197.324142
 21
423.749420
  0
LINE
  8
LC-003-002-----0
 62
     1
  6
CONTINUOUS
 10
153.024139
 20
423.749420
 11
151.724136
 21
423.749420
  0
LINE
  8
LC-003-002-----0
 62
     1
  6
CONTINUOUS
 10
196.024139
 20
402.749420
 11
197.324142
 21
402.749420
  0
LINE
  8
LC-003-002-----0
 62
     1
  6
CONTINUOUS
 10
197.324142
 20
402.249420
 11
204.274139
 21
402.249420
  0
LINE
  8
LC-003-002-----0
 62
     1
  6
CONTINUOUS
 10
153.024139
 20
402.749420
 11
151.724136
 21
402.749420
  0
LINE
  8
LC-003-002-----0
 62
     1
  6
CONTINUOUS
 10
153.024139
 20
402.249420
 11
196.024139
 21
402.249420
  0
LINE
  8
LC-003-002-----0
 62
     1
  6
CONTINUOUS
 10
153.024139
 20
424.249420
 11
196.024139
 21
424.249420
  0
ARC
  8
LC-003-002-----0
 62
     1
  6
CONTINUOUS
 10
144.774139
 20
423.499420
 40
0.750000
 50
90.000003
 51
180.000009
  0
ARC
  8
LC-003-002-----0
 62
     1
  6
CONTINUOUS
 10
144.774139
 20
402.999420
 40
0.750000
 50
180.000009
 51
269.999997
  0
ARC
  8
LC-003-002-----0
 62
     1
  6
CONTINUOUS
 10
204.274139
 20
402.999420
 40
0.750000
 50
269.999997
 51
0.000000
  0
ARC
  8
LC-003-002-----0
 62
     1
  6
CONTINUOUS
 10
204.274139
 20
423.499420
 40
0.750000
 50
0.000000
 51
90.000003
  0
ENDSEC
  0
EOF
