  0
SECTION
  2
HEADER
  9
$LIMMIN
 10
408.013062
 20
315.700317
  9
$LIMMAX
 10
630.671021
 20
377.700317
  9
$EXTMIN
 10
408.013062
 20
315.700317
  9
$EXTMAX
 10
630.671021
 20
377.700317
  0
ENDSEC
  0
SECTION
  2
TABLES
  0
TABLE
  2
LTYPE
 70
     3
  0
LTYPE
  2
CONTINUOUS
 70
    64
  3
Ausgezogene Linie
 72
    65
 73
     0
 40
0.0
  0
LTYPE
  2
DASHED
 70
    64
  3
__ __ __ __ __ __ __ __ __ __ __ __ __ __ __
 72
    65
 73
     2
 40
0.75
 49
0.5
 49
-0.25
  0
LTYPE
  2
DASHDOT
 70
    64
  3
__ . __ . __ . __ . __ . __ . __ . __ . __ . __
 72
    65
 73
     4
 40
1.0
 49
0.5
 49
-0.25
 49
0.0
 49
-0.25
  0
ENDTAB
  0
TABLE
  2
LAYER
 70
     4
  0
LAYER
  2
LC-003-002-----0
 70
    64
 62
     7
  6
CONTINUOUS
  0
LAYER
  2
LC-004-006-----0
 70
    64
 62
     7
  6
CONTINUOUS
  0
LAYER
  2
LC-006-012-----0
 70
    64
 62
     7
  6
CONTINUOUS
  0
LAYER
  2
LC-007-004-----0
 70
    64
 62
     7
  6
CONTINUOUS
  0
ENDTAB
  0
TABLE
  2
STYLE
 70
     1
  0
STYLE
  2
TXT8
 70
    64
 40
0.0
 41
1.0
 50
0.0
 71
     0
 42
3.500000
  3
TXT8
  4

  0
ENDTAB
  0
ENDSEC
  0
SECTION
  2
BLOCKS
  0
ENDSEC
  0
SECTION
  2
ENTITIES
  0
LINE
  8
LC-004-006-----0
 62
     2
  6
DASHDOT
 10
408.013062
 20
346.700317
 11
630.671021
 21
346.700317
  0
LINE
  8
LC-003-002-----0
 62
     1
  6
CONTINUOUS
 10
442.255615
 20
377.700317
 11
455.855591
 21
377.700317
  0
LINE
  8
LC-003-002-----0
 62
     1
  6
CONTINUOUS
 10
442.255615
 20
315.700317
 11
455.855591
 21
315.700317
  0
LINE
  8
LC-003-002-----0
 62
     1
  6
CONTINUOUS
 10
440.755615
 20
376.200317
 11
440.755615
 21
317.200317
  0
LINE
  8
LC-003-002-----0
 62
     1
  6
CONTINUOUS
 10
591.755615
 20
376.200317
 11
591.755615
 21
317.200317
  0
LINE
  8
LC-003-002-----0
 62
     1
  6
CONTINUOUS
 10
414.332977
 20
366.700317
 11
440.755615
 21
366.700317
  0
LINE
  8
LC-003-002-----0
 62
     1
  6
CONTINUOUS
 10
413.234619
 20
326.700317
 11
440.755615
 21
326.700317
  0
LINE
  8
LC-007-004-----0
 62
     2
  6
CONTINUOUS
 10
413.234619
 20
326.700317
 11
414.584564
 21
333.936707
  0
LINE
  8
LC-007-004-----0
 62
     2
  6
CONTINUOUS
 10
414.584564
 20
333.936707
 11
411.443756
 21
352.739136
  0
LINE
  8
LC-007-004-----0
 62
     2
  6
CONTINUOUS
 10
411.443756
 20
352.739136
 11
414.332977
 21
366.700317
  0
LINE
  8
LC-007-004-----0
 62
     2
  6
CONTINUOUS
 10
622.125793
 20
326.700317
 11
620.644653
 21
334.864258
  0
LINE
  8
LC-007-004-----0
 62
     2
  6
CONTINUOUS
 10
620.644653
 20
334.864258
 11
623.761292
 21
354.362366
  0
LINE
  8
LC-007-004-----0
 62
     2
  6
CONTINUOUS
 10
623.761292
 20
354.362366
 11
620.911072
 21
366.700317
  0
LINE
  8
LC-006-012-----0
 62
     2
  6
DASHED
 10
440.755615
 20
366.700317
 11
591.755615
 21
366.700317
  0
LINE
  8
LC-003-002-----0
 62
     1
  6
CONTINUOUS
 10
591.755615
 20
366.700317
 11
620.911072
 21
366.700317
  0
LINE
  8
LC-006-012-----0
 62
     2
  6
DASHED
 10
440.755615
 20
326.700317
 11
591.755615
 21
326.700317
  0
LINE
  8
LC-003-002-----0
 62
     1
  6
CONTINUOUS
 10
591.755615
 20
326.700317
 11
622.125793
 21
326.700317
  0
LINE
  8
LC-003-002-----0
 62
     1
  6
CONTINUOUS
 10
574.505615
 20
315.700317
 11
574.505615
 21
377.700317
  0
LINE
  8
LC-003-002-----0
 62
     1
  6
CONTINUOUS
 10
576.655579
 20
315.700317
 11
576.655579
 21
377.700317
  0
LINE
  8
LC-003-002-----0
 62
     1
  6
CONTINUOUS
 10
574.505615
 20
376.200317
 11
576.655579
 21
376.200317
  0
LINE
  8
LC-003-002-----0
 62
     1
  6
CONTINUOUS
 10
574.505615
 20
317.200317
 11
576.655579
 21
317.200317
  0
LINE
  8
LC-003-002-----0
 62
     1
  6
CONTINUOUS
 10
576.655579
 20
377.700317
 11
590.255615
 21
377.700317
  0
LINE
  8
LC-003-002-----0
 62
     1
  6
CONTINUOUS
 10
576.655579
 20
315.700317
 11
590.255615
 21
315.700317
  0
LINE
  8
LC-003-002-----0
 62
     1
  6
CONTINUOUS
 10
458.005615
 20
315.700317
 11
458.005615
 21
377.700317
  0
LINE
  8
LC-003-002-----0
 62
     1
  6
CONTINUOUS
 10
455.855591
 20
315.700317
 11
455.855591
 21
377.700317
  0
LINE
  8
LC-003-002-----0
 62
     1
  6
CONTINUOUS
 10
458.005615
 20
376.200317
 11
455.855591
 21
376.200317
  0
LINE
  8
LC-003-002-----0
 62
     1
  6
CONTINUOUS
 10
458.005615
 20
317.200317
 11
455.855591
 21
317.200317
  0
LINE
  8
LC-003-002-----0
 62
     1
  6
CONTINUOUS
 10
458.005615
 20
377.700317
 11
574.505615
 21
377.700317
  0
LINE
  8
LC-003-002-----0
 62
     1
  6
CONTINUOUS
 10
458.005615
 20
315.700317
 11
574.505615
 21
315.700317
  0
ARC
  8
LC-003-002-----0
 62
     1
  6
CONTINUOUS
 10
442.255615
 20
376.200317
 40
1.500000
 50
90.000003
 51
180.000009
  0
ARC
  8
LC-003-002-----0
 62
     1
  6
CONTINUOUS
 10
590.255615
 20
376.200317
 40
1.500000
 50
0.000000
 51
90.000003
  0
ARC
  8
LC-003-002-----0
 62
     1
  6
CONTINUOUS
 10
590.255615
 20
317.200317
 40
1.500000
 50
269.999997
 51
0.000000
  0
ARC
  8
LC-003-002-----0
 62
     1
  6
CONTINUOUS
 10
442.255615
 20
317.200317
 40
1.500000
 50
180.000009
 51
269.999997
  0
ENDSEC
  0
EOF
