  0
SECTION
  2
HEADER
  9
$LIMMIN
 10
403.761749
 20
476.499207
  9
$LIMMAX
 10
597.298889
 20
523.499207
  9
$EXTMIN
 10
403.761749
 20
476.499207
  9
$EXTMAX
 10
597.298889
 20
523.499207
  0
ENDSEC
  0
SECTION
  2
TABLES
  0
TABLE
  2
LTYPE
 70
     3
  0
LTYPE
  2
CONTINUOUS
 70
    64
  3
Ausgezogene Linie
 72
    65
 73
     0
 40
0.0
  0
LTYPE
  2
DASHED
 70
    64
  3
__ __ __ __ __ __ __ __ __ __ __ __ __ __ __
 72
    65
 73
     2
 40
0.75
 49
0.5
 49
-0.25
  0
LTYPE
  2
DASHDOT
 70
    64
  3
__ . __ . __ . __ . __ . __ . __ . __ . __ . __
 72
    65
 73
     4
 40
1.0
 49
0.5
 49
-0.25
 49
0.0
 49
-0.25
  0
ENDTAB
  0
TABLE
  2
LAYER
 70
     4
  0
LAYER
  2
LC-003-002-----0
 70
    64
 62
     7
  6
CONTINUOUS
  0
LAYER
  2
LC-004-006-----0
 70
    64
 62
     7
  6
CONTINUOUS
  0
LAYER
  2
LC-006-012-----0
 70
    64
 62
     7
  6
CONTINUOUS
  0
LAYER
  2
LC-007-004-----0
 70
    64
 62
     7
  6
CONTINUOUS
  0
ENDTAB
  0
TABLE
  2
STYLE
 70
     1
  0
STYLE
  2
TXT8
 70
    64
 40
0.0
 41
1.0
 50
0.0
 71
     0
 42
3.500000
  3
TXT8
  4

  0
ENDTAB
  0
ENDSEC
  0
SECTION
  2
BLOCKS
  0
ENDSEC
  0
SECTION
  2
ENTITIES
  0
LINE
  8
LC-004-006-----0
 62
     2
  6
DASHDOT
 10
403.761749
 20
499.999207
 11
597.298889
 21
499.999207
  0
LINE
  8
LC-003-002-----0
 62
     1
  6
CONTINUOUS
 10
442.255615
 20
523.499207
 11
450.405609
 21
523.499207
  0
LINE
  8
LC-003-002-----0
 62
     1
  6
CONTINUOUS
 10
442.255615
 20
476.499207
 11
450.405609
 21
476.499207
  0
LINE
  8
LC-003-002-----0
 62
     1
  6
CONTINUOUS
 10
440.755615
 20
521.999207
 11
440.755615
 21
477.999207
  0
LINE
  8
LC-003-002-----0
 62
     1
  6
CONTINUOUS
 10
563.755615
 20
521.999207
 11
563.755615
 21
477.999207
  0
LINE
  8
LC-003-002-----0
 62
     1
  6
CONTINUOUS
 10
407.174469
 20
514.999207
 11
440.755615
 21
514.999207
  0
LINE
  8
LC-003-002-----0
 62
     1
  6
CONTINUOUS
 10
407.745911
 20
484.999207
 11
440.755615
 21
484.999207
  0
LINE
  8
LC-007-004-----0
 62
     2
  6
CONTINUOUS
 10
407.745911
 20
484.999207
 11
407.082153
 21
487.898834
  0
LINE
  8
LC-007-004-----0
 62
     2
  6
CONTINUOUS
 10
407.082153
 20
487.898834
 11
410.641022
 21
503.936340
  0
LINE
  8
LC-007-004-----0
 62
     2
  6
CONTINUOUS
 10
410.641022
 20
503.936340
 11
407.174469
 21
514.999207
  0
LINE
  8
LC-007-004-----0
 62
     2
  6
CONTINUOUS
 10
592.583069
 20
484.999207
 11
593.739990
 21
490.363892
  0
LINE
  8
LC-007-004-----0
 62
     2
  6
CONTINUOUS
 10
593.739990
 20
490.363892
 11
589.227173
 21
504.992798
  0
LINE
  8
LC-007-004-----0
 62
     2
  6
CONTINUOUS
 10
589.227173
 20
504.992798
 11
591.614990
 21
514.999207
  0
LINE
  8
LC-006-012-----0
 62
     2
  6
DASHED
 10
440.755615
 20
514.999207
 11
563.755615
 21
514.999207
  0
LINE
  8
LC-003-002-----0
 62
     1
  6
CONTINUOUS
 10
563.755615
 20
514.999207
 11
591.614990
 21
514.999207
  0
LINE
  8
LC-006-012-----0
 62
     2
  6
DASHED
 10
440.755615
 20
484.999207
 11
563.755615
 21
484.999207
  0
LINE
  8
LC-003-002-----0
 62
     1
  6
CONTINUOUS
 10
563.755615
 20
484.999207
 11
592.583069
 21
484.999207
  0
LINE
  8
LC-003-002-----0
 62
     1
  6
CONTINUOUS
 10
552.255615
 20
476.499207
 11
552.255615
 21
523.499207
  0
LINE
  8
LC-003-002-----0
 62
     1
  6
CONTINUOUS
 10
554.105591
 20
476.499207
 11
554.105591
 21
523.499207
  0
LINE
  8
LC-003-002-----0
 62
     1
  6
CONTINUOUS
 10
552.255615
 20
522.249207
 11
554.105591
 21
522.249207
  0
LINE
  8
LC-003-002-----0
 62
     1
  6
CONTINUOUS
 10
552.255615
 20
477.749207
 11
554.105591
 21
477.749207
  0
LINE
  8
LC-003-002-----0
 62
     1
  6
CONTINUOUS
 10
554.105591
 20
523.499207
 11
562.255615
 21
523.499207
  0
LINE
  8
LC-003-002-----0
 62
     1
  6
CONTINUOUS
 10
554.105591
 20
476.499207
 11
562.255615
 21
476.499207
  0
LINE
  8
LC-003-002-----0
 62
     1
  6
CONTINUOUS
 10
452.255615
 20
476.499207
 11
452.255615
 21
523.499207
  0
LINE
  8
LC-003-002-----0
 62
     1
  6
CONTINUOUS
 10
450.405609
 20
476.499207
 11
450.405609
 21
523.499207
  0
LINE
  8
LC-003-002-----0
 62
     1
  6
CONTINUOUS
 10
452.255615
 20
522.249207
 11
450.405609
 21
522.249207
  0
LINE
  8
LC-003-002-----0
 62
     1
  6
CONTINUOUS
 10
452.255615
 20
477.749207
 11
450.405609
 21
477.749207
  0
LINE
  8
LC-003-002-----0
 62
     1
  6
CONTINUOUS
 10
452.255615
 20
476.499207
 11
552.255615
 21
476.499207
  0
LINE
  8
LC-003-002-----0
 62
     1
  6
CONTINUOUS
 10
452.255615
 20
523.499207
 11
552.255615
 21
523.499207
  0
ARC
  8
LC-003-002-----0
 62
     1
  6
CONTINUOUS
 10
442.255615
 20
521.999207
 40
1.500000
 50
90.000003
 51
180.000009
  0
ARC
  8
LC-003-002-----0
 62
     1
  6
CONTINUOUS
 10
442.255615
 20
477.999207
 40
1.500000
 50
180.000009
 51
269.999997
  0
ARC
  8
LC-003-002-----0
 62
     1
  6
CONTINUOUS
 10
562.255615
 20
477.999207
 40
1.500000
 50
269.999997
 51
0.000000
  0
ARC
  8
LC-003-002-----0
 62
     1
  6
CONTINUOUS
 10
562.255615
 20
521.999207
 40
1.500000
 50
0.000000
 51
90.000003
  0
ENDSEC
  0
EOF
