  0
SECTION
  2
HEADER
  9
$LIMMIN
 10
116.977272
 20
181.150726
  9
$LIMMAX
 10
251.592178
 20
213.150726
  9
$EXTMIN
 10
116.977272
 20
181.150726
  9
$EXTMAX
 10
251.592178
 20
213.150726
  0
ENDSEC
  0
SECTION
  2
TABLES
  0
TABLE
  2
LTYPE
 70
     3
  0
LTYPE
  2
CONTINUOUS
 70
    64
  3
Ausgezogene Linie
 72
    65
 73
     0
 40
0.0
  0
LTYPE
  2
DASHED
 70
    64
  3
__ __ __ __ __ __ __ __ __ __ __ __ __ __ __
 72
    65
 73
     2
 40
0.75
 49
0.5
 49
-0.25
  0
LTYPE
  2
DASHDOT
 70
    64
  3
__ . __ . __ . __ . __ . __ . __ . __ . __ . __
 72
    65
 73
     4
 40
1.0
 49
0.5
 49
-0.25
 49
0.0
 49
-0.25
  0
ENDTAB
  0
TABLE
  2
LAYER
 70
     4
  0
LAYER
  2
LC-003-002-----0
 70
    64
 62
     7
  6
CONTINUOUS
  0
LAYER
  2
LC-004-006-----0
 70
    64
 62
     7
  6
CONTINUOUS
  0
LAYER
  2
LC-006-012-----0
 70
    64
 62
     7
  6
CONTINUOUS
  0
LAYER
  2
LC-007-004-----0
 70
    64
 62
     7
  6
CONTINUOUS
  0
ENDTAB
  0
TABLE
  2
STYLE
 70
     1
  0
STYLE
  2
TXT8
 70
    64
 40
0.0
 41
1.0
 50
0.0
 71
     0
 42
3.500000
  3
TXT8
  4

  0
ENDTAB
  0
ENDSEC
  0
SECTION
  2
BLOCKS
  0
ENDSEC
  0
SECTION
  2
ENTITIES
  0
LINE
  8
LC-004-006-----0
 62
     2
  6
DASHDOT
 10
116.977272
 20
197.150726
 11
251.592178
 21
197.150726
  0
LINE
  8
LC-003-002-----0
 62
     1
  6
CONTINUOUS
 10
145.024139
 20
213.150726
 11
153.674149
 21
213.150726
  0
LINE
  8
LC-003-002-----0
 62
     1
  6
CONTINUOUS
 10
145.024139
 20
181.150726
 11
153.674149
 21
181.150726
  0
LINE
  8
LC-003-002-----0
 62
     1
  6
CONTINUOUS
 10
144.024139
 20
212.150726
 11
144.024139
 21
182.150726
  0
LINE
  8
LC-003-002-----0
 62
     1
  6
CONTINUOUS
 10
224.024139
 20
212.150726
 11
224.024139
 21
182.150726
  0
LINE
  8
LC-003-002-----0
 62
     1
  6
CONTINUOUS
 10
122.176315
 20
207.150726
 11
144.024139
 21
207.150726
  0
LINE
  8
LC-003-002-----0
 62
     1
  6
CONTINUOUS
 10
121.889671
 20
187.150726
 11
144.024139
 21
187.150726
  0
LINE
  8
LC-007-004-----0
 62
     2
  6
CONTINUOUS
 10
121.889671
 20
187.150726
 11
122.635963
 21
192.324554
  0
LINE
  8
LC-007-004-----0
 62
     2
  6
CONTINUOUS
 10
122.635963
 20
192.324554
 11
121.921440
 21
202.030350
  0
LINE
  8
LC-007-004-----0
 62
     2
  6
CONTINUOUS
 10
121.921440
 20
202.030350
 11
122.176315
 21
207.150726
  0
LINE
  8
LC-007-004-----0
 62
     2
  6
CONTINUOUS
 10
245.160828
 20
187.150726
 11
246.595047
 21
191.262787
  0
LINE
  8
LC-007-004-----0
 62
     2
  6
CONTINUOUS
 10
246.595047
 20
191.262787
 11
245.295578
 21
201.768433
  0
LINE
  8
LC-007-004-----0
 62
     2
  6
CONTINUOUS
 10
245.295578
 20
201.768433
 11
246.504028
 21
207.150726
  0
LINE
  8
LC-006-012-----0
 62
     2
  6
DASHED
 10
144.024139
 20
207.150726
 11
224.024139
 21
207.150726
  0
LINE
  8
LC-003-002-----0
 62
     1
  6
CONTINUOUS
 10
224.024139
 20
207.150726
 11
246.504028
 21
207.150726
  0
LINE
  8
LC-006-012-----0
 62
     2
  6
DASHED
 10
144.024139
 20
187.150726
 11
224.024139
 21
187.150726
  0
LINE
  8
LC-003-002-----0
 62
     1
  6
CONTINUOUS
 10
224.024139
 20
187.150726
 11
245.160828
 21
187.150726
  0
LINE
  8
LC-003-002-----0
 62
     1
  6
CONTINUOUS
 10
212.774139
 20
181.150726
 11
212.774139
 21
213.150726
  0
LINE
  8
LC-003-002-----0
 62
     1
  6
CONTINUOUS
 10
214.374146
 20
181.150726
 11
214.374146
 21
213.150726
  0
LINE
  8
LC-003-002-----0
 62
     1
  6
CONTINUOUS
 10
155.274139
 20
181.150726
 11
155.274139
 21
213.150726
  0
LINE
  8
LC-003-002-----0
 62
     1
  6
CONTINUOUS
 10
153.674149
 20
181.150726
 11
153.674149
 21
213.150726
  0
LINE
  8
LC-003-002-----0
 62
     1
  6
CONTINUOUS
 10
214.374146
 20
213.150726
 11
223.024139
 21
213.150726
  0
LINE
  8
LC-003-002-----0
 62
     1
  6
CONTINUOUS
 10
212.774139
 20
212.300735
 11
214.374146
 21
212.300735
  0
LINE
  8
LC-003-002-----0
 62
     1
  6
CONTINUOUS
 10
155.274139
 20
212.300735
 11
153.674149
 21
212.300735
  0
LINE
  8
LC-003-002-----0
 62
     1
  6
CONTINUOUS
 10
212.774139
 20
182.000732
 11
214.374146
 21
182.000732
  0
LINE
  8
LC-003-002-----0
 62
     1
  6
CONTINUOUS
 10
155.274139
 20
182.000732
 11
153.674149
 21
182.000732
  0
LINE
  8
LC-003-002-----0
 62
     1
  6
CONTINUOUS
 10
214.374146
 20
181.150726
 11
223.024139
 21
181.150726
  0
LINE
  8
LC-003-002-----0
 62
     1
  6
CONTINUOUS
 10
155.274139
 20
181.150726
 11
212.774139
 21
181.150726
  0
LINE
  8
LC-003-002-----0
 62
     1
  6
CONTINUOUS
 10
155.274139
 20
213.150726
 11
212.774139
 21
213.150726
  0
ARC
  8
LC-003-002-----0
 62
     1
  6
CONTINUOUS
 10
145.024139
 20
212.150726
 40
1.000000
 50
90.000003
 51
180.000009
  0
ARC
  8
LC-003-002-----0
 62
     1
  6
CONTINUOUS
 10
145.024139
 20
182.150726
 40
1.000000
 50
180.000009
 51
269.999997
  0
ARC
  8
LC-003-002-----0
 62
     1
  6
CONTINUOUS
 10
223.024139
 20
182.150726
 40
1.000000
 50
269.999997
 51
0.000000
  0
ARC
  8
LC-003-002-----0
 62
     1
  6
CONTINUOUS
 10
223.024139
 20
212.150726
 40
1.000000
 50
0.000000
 51
90.000003
  0
ENDSEC
  0
EOF
