  0
SECTION
  2
HEADER
  9
$LIMMIN
 10
117.957359
 20
504.916931
  9
$LIMMAX
 10
215.755615
 20
520.916931
  9
$EXTMIN
 10
117.957359
 20
504.916931
  9
$EXTMAX
 10
215.755615
 20
520.916931
  0
ENDSEC
  0
SECTION
  2
TABLES
  0
TABLE
  2
LTYPE
 70
     3
  0
LTYPE
  2
CONTINUOUS
 70
    64
  3
Ausgezogene Linie
 72
    65
 73
     0
 40
0.0
  0
LTYPE
  2
DASHED
 70
    64
  3
__ __ __ __ __ __ __ __ __ __ __ __ __ __ __
 72
    65
 73
     2
 40
0.75
 49
0.5
 49
-0.25
  0
LTYPE
  2
DASHDOT
 70
    64
  3
__ . __ . __ . __ . __ . __ . __ . __ . __ . __
 72
    65
 73
     4
 40
1.0
 49
0.5
 49
-0.25
 49
0.0
 49
-0.25
  0
ENDTAB
  0
TABLE
  2
LAYER
 70
     4
  0
LAYER
  2
LC-003-002-----0
 70
    64
 62
     7
  6
CONTINUOUS
  0
LAYER
  2
LC-004-006-----0
 70
    64
 62
     7
  6
CONTINUOUS
  0
LAYER
  2
LC-006-012-----0
 70
    64
 62
     7
  6
CONTINUOUS
  0
LAYER
  2
LC-007-004-----0
 70
    64
 62
     7
  6
CONTINUOUS
  0
ENDTAB
  0
TABLE
  2
STYLE
 70
     1
  0
STYLE
  2
TXT8
 70
    64
 40
0.0
 41
1.0
 50
0.0
 71
     0
 42
3.500000
  3
TXT8
  4

  0
ENDTAB
  0
ENDSEC
  0
SECTION
  2
BLOCKS
  0
ENDSEC
  0
SECTION
  2
ENTITIES
  0
LINE
  8
LC-004-006-----0
 62
     2
  6
DASHDOT
 10
117.957359
 20
512.916931
 11
215.755615
 21
512.916931
  0
LINE
  8
LC-003-002-----0
 62
     1
  6
CONTINUOUS
 10
144.524139
 20
520.916931
 11
150.674149
 21
520.916931
  0
LINE
  8
LC-003-002-----0
 62
     1
  6
CONTINUOUS
 10
144.524139
 20
504.916931
 11
150.674149
 21
504.916931
  0
LINE
  8
LC-003-002-----0
 62
     1
  6
CONTINUOUS
 10
144.024139
 20
520.416931
 11
144.024139
 21
505.416931
  0
LINE
  8
LC-003-002-----0
 62
     1
  6
CONTINUOUS
 10
190.024139
 20
520.416931
 11
190.024139
 21
505.416931
  0
LINE
  8
LC-003-002-----0
 62
     1
  6
CONTINUOUS
 10
121.696053
 20
516.916931
 11
144.024139
 21
516.916931
  0
LINE
  8
LC-003-002-----0
 62
     1
  6
CONTINUOUS
 10
121.204208
 20
508.916931
 11
144.024139
 21
508.916931
  0
LINE
  8
LC-007-004-----0
 62
     2
  6
CONTINUOUS
 10
121.204208
 20
508.916931
 11
121.825989
 21
511.141815
  0
LINE
  8
LC-007-004-----0
 62
     2
  6
CONTINUOUS
 10
121.825989
 20
511.141815
 11
121.050774
 21
514.936646
  0
LINE
  8
LC-007-004-----0
 62
     2
  6
CONTINUOUS
 10
121.050774
 20
514.936646
 11
121.696053
 21
516.916931
  0
LINE
  8
LC-007-004-----0
 62
     2
  6
CONTINUOUS
 10
211.639145
 20
508.916931
 11
211.991348
 21
510.640991
  0
LINE
  8
LC-007-004-----0
 62
     2
  6
CONTINUOUS
 10
211.991348
 20
510.640991
 11
211.022324
 21
515.008179
  0
LINE
  8
LC-007-004-----0
 62
     2
  6
CONTINUOUS
 10
211.022324
 20
515.008179
 11
211.320297
 21
516.916931
  0
LINE
  8
LC-006-012-----0
 62
     2
  6
DASHED
 10
144.024139
 20
516.916931
 11
190.024139
 21
516.916931
  0
LINE
  8
LC-003-002-----0
 62
     1
  6
CONTINUOUS
 10
190.024139
 20
516.916931
 11
211.320297
 21
516.916931
  0
LINE
  8
LC-006-012-----0
 62
     2
  6
DASHED
 10
144.024139
 20
508.916931
 11
190.024139
 21
508.916931
  0
LINE
  8
LC-003-002-----0
 62
     1
  6
CONTINUOUS
 10
190.024139
 20
508.916931
 11
211.639145
 21
508.916931
  0
LINE
  8
LC-003-002-----0
 62
     1
  6
CONTINUOUS
 10
182.274139
 20
504.916931
 11
182.274139
 21
520.916931
  0
LINE
  8
LC-003-002-----0
 62
     1
  6
CONTINUOUS
 10
183.374146
 20
504.916931
 11
183.374146
 21
520.916931
  0
LINE
  8
LC-003-002-----0
 62
     1
  6
CONTINUOUS
 10
151.774139
 20
504.916931
 11
151.774139
 21
520.916931
  0
LINE
  8
LC-003-002-----0
 62
     1
  6
CONTINUOUS
 10
150.674149
 20
504.916931
 11
150.674149
 21
520.916931
  0
LINE
  8
LC-003-002-----0
 62
     1
  6
CONTINUOUS
 10
183.374146
 20
520.916931
 11
189.524139
 21
520.916931
  0
LINE
  8
LC-003-002-----0
 62
     1
  6
CONTINUOUS
 10
182.274139
 20
520.516907
 11
183.374146
 21
520.516907
  0
LINE
  8
LC-003-002-----0
 62
     1
  6
CONTINUOUS
 10
151.774139
 20
520.516907
 11
150.674149
 21
520.516907
  0
LINE
  8
LC-003-002-----0
 62
     1
  6
CONTINUOUS
 10
182.274139
 20
505.316925
 11
183.374146
 21
505.316925
  0
LINE
  8
LC-003-002-----0
 62
     1
  6
CONTINUOUS
 10
183.374146
 20
504.916931
 11
189.524139
 21
504.916931
  0
LINE
  8
LC-003-002-----0
 62
     1
  6
CONTINUOUS
 10
151.774139
 20
505.316925
 11
150.674149
 21
505.316925
  0
LINE
  8
LC-003-002-----0
 62
     1
  6
CONTINUOUS
 10
151.774139
 20
504.916931
 11
182.274139
 21
504.916931
  0
LINE
  8
LC-003-002-----0
 62
     1
  6
CONTINUOUS
 10
151.774139
 20
520.916931
 11
182.274139
 21
520.916931
  0
ARC
  8
LC-003-002-----0
 62
     1
  6
CONTINUOUS
 10
144.524139
 20
520.416931
 40
0.500000
 50
90.000003
 51
180.000009
  0
ARC
  8
LC-003-002-----0
 62
     1
  6
CONTINUOUS
 10
144.524139
 20
505.416931
 40
0.500000
 50
180.000009
 51
269.999997
  0
ARC
  8
LC-003-002-----0
 62
     1
  6
CONTINUOUS
 10
189.524139
 20
505.416931
 40
0.500000
 50
269.999997
 51
0.000000
  0
ARC
  8
LC-003-002-----0
 62
     1
  6
CONTINUOUS
 10
189.524139
 20
520.416931
 40
0.500000
 50
0.000000
 51
90.000003
  0
ENDSEC
  0
EOF
