  0
SECTION
  2
HEADER
  9
$LIMMIN
 10
269.581451
 20
326.396423
  9
$LIMMAX
 10
467.175812
 20
377.048462
  9
$EXTMIN
 10
269.581451
 20
326.396423
  9
$EXTMAX
 10
467.175812
 20
377.048462
  0
ENDSEC
  0
SECTION
  2
TABLES
  0
TABLE
  2
LTYPE
 70
     3
  0
LTYPE
  2
CONTINUOUS
 70
    64
  3
Ausgezogene Linie
 72
    65
 73
     0
 40
0.0
  0
LTYPE
  2
DASHED
 70
    64
  3
__ __ __ __ __ __ __ __ __ __ __ __ __ __ __
 72
    65
 73
     2
 40
0.75
 49
0.5
 49
-0.25
  0
LTYPE
  2
DASHDOT
 70
    64
  3
__ . __ . __ . __ . __ . __ . __ . __ . __ . __
 72
    65
 73
     4
 40
1.0
 49
0.5
 49
-0.25
 49
0.0
 49
-0.25
  0
ENDTAB
  0
TABLE
  2
LAYER
 70
     4
  0
LAYER
  2
LC-003-002-----0
 70
    64
 62
     7
  6
CONTINUOUS
  0
LAYER
  2
LC-005-002-RND-0
 70
    64
 62
     7
  6
CONTINUOUS
  0
LAYER
  2
LC-004-006-----0
 70
    64
 62
     7
  6
CONTINUOUS
  0
LAYER
  2
LC-006-012-----0
 70
    64
 62
     7
  6
CONTINUOUS
  0
ENDTAB
  0
TABLE
  2
STYLE
 70
     1
  0
STYLE
  2
TXT8
 70
    64
 40
0.0
 41
1.0
 50
0.0
 71
     0
 42
3.500000
  3
TXT8
  4

  0
ENDTAB
  0
ENDSEC
  0
SECTION
  2
BLOCKS
  0
ENDSEC
  0
SECTION
  2
ENTITIES
  0
LINE
  8
LC-005-002-RND-0
 62
     2
  6
DASHDOT
 10
269.581451
 20
352.062683
 11
391.769836
 21
352.062683
  0
LINE
  8
LC-003-002-----0
 62
     1
  6
CONTINUOUS
 10
290.062347
 20
374.562683
 11
298.712341
 21
374.562683
  0
LINE
  8
LC-003-002-----0
 62
     1
  6
CONTINUOUS
 10
290.062347
 20
329.562683
 11
298.712341
 21
329.562683
  0
LINE
  8
LC-003-002-----0
 62
     1
  6
CONTINUOUS
 10
288.812347
 20
373.312683
 11
288.812347
 21
330.812683
  0
LINE
  8
LC-003-002-----0
 62
     1
  6
CONTINUOUS
 10
368.812347
 20
373.312683
 11
368.812347
 21
330.812683
  0
ARC
  8
LC-003-002-----0
 62
     1
  6
CONTINUOUS
 10
290.062347
 20
373.312683
 40
1.250000
 50
90.000003
 51
180.000009
  0
ARC
  8
LC-003-002-----0
 62
     1
  6
CONTINUOUS
 10
290.062347
 20
330.812683
 40
1.250000
 50
180.000009
 51
269.999997
  0
ARC
  8
LC-003-002-----0
 62
     1
  6
CONTINUOUS
 10
367.562347
 20
330.812683
 40
1.250000
 50
269.999997
 51
0.000000
  0
ARC
  8
LC-003-002-----0
 62
     1
  6
CONTINUOUS
 10
367.562347
 20
373.312683
 40
1.250000
 50
0.000000
 51
90.000003
  0
LINE
  8
LC-005-002-RND-0
 62
     2
  6
DASHDOT
 10
328.812347
 20
376.062683
 11
328.812347
 21
327.736023
  0
LINE
  8
LC-003-002-----0
 62
     1
  6
CONTINUOUS
 10
357.062347
 20
374.562683
 11
357.062347
 21
329.562683
  0
LINE
  8
LC-003-002-----0
 62
     1
  6
CONTINUOUS
 10
358.912354
 20
374.562683
 11
358.912354
 21
329.562683
  0
LINE
  8
LC-003-002-----0
 62
     1
  6
CONTINUOUS
 10
300.562347
 20
374.562683
 11
300.562347
 21
329.562683
  0
LINE
  8
LC-003-002-----0
 62
     1
  6
CONTINUOUS
 10
298.712341
 20
374.562683
 11
298.712341
 21
329.562683
  0
LINE
  8
LC-003-002-----0
 62
     1
  6
CONTINUOUS
 10
358.912354
 20
374.562683
 11
367.562347
 21
374.562683
  0
LINE
  8
LC-003-002-----0
 62
     1
  6
CONTINUOUS
 10
358.912354
 20
329.562683
 11
367.562347
 21
329.562683
  0
LINE
  8
LC-003-002-----0
 62
     1
  6
CONTINUOUS
 10
300.562347
 20
330.812683
 11
298.712341
 21
330.812683
  0
LINE
  8
LC-003-002-----0
 62
     1
  6
CONTINUOUS
 10
357.062347
 20
330.812683
 11
358.912354
 21
330.812683
  0
LINE
  8
LC-003-002-----0
 62
     1
  6
CONTINUOUS
 10
357.062347
 20
373.312683
 11
358.912354
 21
373.312683
  0
LINE
  8
LC-003-002-----0
 62
     1
  6
CONTINUOUS
 10
300.562347
 20
373.312683
 11
298.712341
 21
373.312683
  0
LINE
  8
LC-003-002-----0
 62
     1
  6
CONTINUOUS
 10
300.562347
 20
374.562683
 11
327.312347
 21
374.562683
  0
LINE
  8
LC-003-002-----0
 62
     1
  6
CONTINUOUS
 10
300.562347
 20
329.562683
 11
327.312347
 21
329.562683
  0
LINE
  8
LC-003-002-----0
 62
     1
  6
CONTINUOUS
 10
330.312347
 20
374.562683
 11
330.312347
 21
355.562683
  0
LINE
  8
LC-003-002-----0
 62
     1
  6
CONTINUOUS
 10
327.312347
 20
374.562683
 11
327.312347
 21
355.562683
  0
LINE
  8
LC-003-002-----0
 62
     1
  6
CONTINUOUS
 10
330.312347
 20
374.562683
 11
357.062347
 21
374.562683
  0
ARC
  8
LC-003-002-----0
 62
     1
  6
CONTINUOUS
 10
328.812347
 20
374.562683
 40
1.500000
 50
180.000009
 51
0.000000
  0
ARC
  8
LC-003-002-----0
 62
     1
  6
CONTINUOUS
 10
328.812347
 20
329.562683
 40
1.500000
 50
0.000000
 51
180.000009
  0
LINE
  8
LC-003-002-----0
 62
     1
  6
CONTINUOUS
 10
330.312347
 20
329.562683
 11
357.062347
 21
329.562683
  0
LINE
  8
LC-003-002-----0
 62
     1
  6
CONTINUOUS
 10
273.475952
 20
366.062683
 11
288.812347
 21
366.062683
  0
LINE
  8
LC-003-002-----0
 62
     1
  6
CONTINUOUS
 10
272.453400
 20
338.062683
 11
288.812347
 21
338.062683
  0
LINE
  8
LC-006-012-----0
 62
     2
  6
CONTINUOUS
 10
272.453400
 20
338.062683
 11
272.972504
 21
342.662170
  0
LINE
  8
LC-006-012-----0
 62
     2
  6
CONTINUOUS
 10
272.972504
 20
342.662170
 11
272.972504
 21
355.644409
  0
LINE
  8
LC-006-012-----0
 62
     2
  6
CONTINUOUS
 10
272.972504
 20
355.644409
 11
273.475952
 21
366.062683
  0
LINE
  8
LC-006-012-----0
 62
     2
  6
CONTINUOUS
 10
386.893768
 20
338.062683
 11
386.537048
 21
343.202698
  0
LINE
  8
LC-006-012-----0
 62
     2
  6
CONTINUOUS
 10
386.537048
 20
343.202698
 11
387.051941
 21
357.578064
  0
LINE
  8
LC-006-012-----0
 62
     2
  6
CONTINUOUS
 10
387.051941
 20
357.578064
 11
386.369781
 21
366.062683
  0
LINE
  8
LC-004-006-----0
 62
     2
  6
DASHED
 10
288.812347
 20
366.062683
 11
368.812347
 21
366.062683
  0
LINE
  8
LC-003-002-----0
 62
     1
  6
CONTINUOUS
 10
368.812347
 20
366.062683
 11
386.369781
 21
366.062683
  0
LINE
  8
LC-004-006-----0
 62
     2
  6
DASHED
 10
288.812347
 20
338.062683
 11
368.812347
 21
338.062683
  0
LINE
  8
LC-003-002-----0
 62
     1
  6
CONTINUOUS
 10
368.812347
 20
338.062683
 11
386.893768
 21
338.062683
  0
LINE
  8
LC-005-002-RND-0
 62
     2
  6
DASHDOT
 10
416.574921
 20
352.062683
 11
467.175812
 21
352.062683
  0
LINE
  8
LC-005-002-RND-0
 62
     2
  6
DASHDOT
 10
442.157043
 20
377.048462
 11
442.157043
 21
326.396423
  0
CIRCLE
  8
LC-003-002-----0
 62
     1
  6
CONTINUOUS
 10
442.157043
 20
352.062683
 40
22.500000
  0
CIRCLE
  8
LC-003-002-----0
 62
     1
  6
CONTINUOUS
 10
442.157043
 20
352.062683
 40
21.000000
  0
LINE
  8
LC-004-006-----0
 62
     2
  6
DASHED
 10
460.657043
 20
355.562683
 11
464.383148
 21
355.562683
  0
LINE
  8
LC-004-006-----0
 62
     2
  6
DASHED
 10
460.657043
 20
348.562683
 11
464.383148
 21
348.562683
  0
LINE
  8
LC-004-006-----0
 62
     2
  6
DASHED
 10
443.657043
 20
374.512634
 11
443.657043
 21
370.016052
  0
LINE
  8
LC-004-006-----0
 62
     2
  6
DASHED
 10
460.657043
 20
348.562683
 11
460.657043
 21
355.562683
  0
LINE
  8
LC-004-006-----0
 62
     2
  6
DASHED
 10
440.657043
 20
374.512634
 11
440.657043
 21
370.016052
  0
LINE
  8
LC-004-006-----0
 62
     2
  6
DASHED
 10
440.657043
 20
329.612732
 11
440.657043
 21
334.109344
  0
LINE
  8
LC-004-006-----0
 62
     2
  6
DASHED
 10
443.657043
 20
329.612732
 11
443.657043
 21
334.109344
  0
LINE
  8
LC-005-002-RND-0
 62
     2
  6
DASHDOT
 10
444.296936
 20
364.198700
 11
444.799805
 21
367.050629
  0
ARC
  8
LC-003-002-----0
 62
     1
  6
CONTINUOUS
 10
444.622833
 20
366.046967
 40
1.250000
 50
181.705848
 51
338.294147
  0
ARC
  8
LC-003-002-----0
 62
     1
  6
CONTINUOUS
 10
442.157043
 20
352.062683
 40
14.000000
 50
85.015706
 51
94.984299
  0
ARC
  8
LC-003-002-----0
 62
     1
  6
CONTINUOUS
 10
439.691223
 20
366.046967
 40
1.250000
 50
201.705858
 51
358.294147
  0
LINE
  8
LC-005-002-RND-0
 62
     2
  6
DASHDOT
 10
440.017120
 20
364.198700
 11
439.514252
 21
367.050629
  0
ARC
  8
LC-003-002-----0
 62
     1
  6
CONTINUOUS
 10
439.691223
 20
338.078430
 40
1.250000
 50
1.705853
 51
158.294142
  0
LINE
  8
LC-005-002-RND-0
 62
     2
  6
DASHDOT
 10
440.017120
 20
339.926666
 11
439.514252
 21
337.074738
  0
LINE
  8
LC-005-002-RND-0
 62
     2
  6
DASHDOT
 10
444.296936
 20
339.926666
 11
444.799805
 21
337.074738
  0
ARC
  8
LC-003-002-----0
 62
     1
  6
CONTINUOUS
 10
444.622833
 20
338.078430
 40
1.250000
 50
21.705853
 51
178.294152
  0
ARC
  8
LC-003-002-----0
 62
     1
  6
CONTINUOUS
 10
442.157043
 20
352.062683
 40
14.000000
 50
265.015701
 51
274.984294
  0
ARC
  8
LC-003-002-----0
 62
     1
  6
CONTINUOUS
 10
442.157043
 20
352.062683
 40
14.000000
 50
285.015704
 51
74.984296
  0
ARC
  8
LC-003-002-----0
 62
     1
  6
CONTINUOUS
 10
442.157043
 20
352.062683
 40
14.000000
 50
105.015702
 51
254.984298
  0
LINE
  8
LC-003-002-----0
 62
     1
  6
CONTINUOUS
 10
386.408203
 20
365.584656
 11
368.812347
 21
365.584656
  0
ARC
  8
LC-003-002-----0
 62
     1
  6
CONTINUOUS
 10
442.157043
 20
352.062683
 40
14.400000
 50
103.310614
 51
256.689386
  0
ARC
  8
LC-003-002-----0
 62
     1
  6
CONTINUOUS
 10
439.691223
 20
338.078430
 40
0.850000
 50
338.052136
 51
181.947869
  0
ARC
  8
LC-003-002-----0
 62
     1
  6
CONTINUOUS
 10
442.157043
 20
352.062683
 40
14.400000
 50
263.310620
 51
276.689382
  0
ARC
  8
LC-003-002-----0
 62
     1
  6
CONTINUOUS
 10
444.622833
 20
338.078430
 40
0.850000
 50
358.052136
 51
201.947865
  0
ARC
  8
LC-003-002-----0
 62
     1
  6
CONTINUOUS
 10
442.157043
 20
352.062683
 40
14.400000
 50
283.310616
 51
76.689384
  0
ARC
  8
LC-003-002-----0
 62
     1
  6
CONTINUOUS
 10
444.622833
 20
366.046967
 40
0.850000
 50
158.052135
 51
1.947864
  0
ARC
  8
LC-003-002-----0
 62
     1
  6
CONTINUOUS
 10
442.157043
 20
352.062683
 40
14.400000
 50
83.310618
 51
96.689380
  0
ARC
  8
LC-003-002-----0
 62
     1
  6
CONTINUOUS
 10
439.691223
 20
366.046967
 40
0.850000
 50
178.052131
 51
21.947864
  0
LINE
  8
LC-004-006-----0
 62
     2
  6
DASHED
 10
368.812347
 20
365.584656
 11
288.812347
 21
365.584656
  0
LINE
  8
LC-003-002-----0
 62
     1
  6
CONTINUOUS
 10
288.812347
 20
365.584656
 11
273.452850
 21
365.584656
  0
LINE
  8
LC-004-006-----0
 62
     2
  6
DASHED
 10
368.812347
 20
338.540710
 11
288.812347
 21
338.540710
  0
LINE
  8
LC-003-002-----0
 62
     1
  6
CONTINUOUS
 10
288.812347
 20
338.540710
 11
272.507355
 21
338.540710
  0
LINE
  8
LC-003-002-----0
 62
     1
  6
CONTINUOUS
 10
386.860596
 20
338.540710
 11
368.812347
 21
338.540710
  0
LINE
  8
LC-003-002-----0
 62
     1
  6
CONTINUOUS
 10
345.812347
 20
355.562683
 11
311.812347
 21
355.562683
  0
LINE
  8
LC-003-002-----0
 62
     1
  6
CONTINUOUS
 10
345.812347
 20
348.562683
 11
311.812347
 21
348.562683
  0
LINE
  8
LC-005-002-RND-0
 62
     2
  6
DASHDOT
 10
345.812347
 20
358.305084
 11
345.812347
 21
345.081940
  0
LINE
  8
LC-003-002-----0
 62
     1
  6
CONTINUOUS
 10
330.312347
 20
348.562683
 11
330.312347
 21
329.562683
  0
LINE
  8
LC-003-002-----0
 62
     1
  6
CONTINUOUS
 10
327.312347
 20
348.562683
 11
327.312347
 21
329.562683
  0
ARC
  8
LC-003-002-----0
 62
     1
  6
CONTINUOUS
 10
345.812347
 20
352.062683
 40
3.500000
 50
269.999997
 51
90.000003
  0
ARC
  8
LC-003-002-----0
 62
     1
  6
CONTINUOUS
 10
311.812347
 20
352.062683
 40
3.500000
 50
90.000003
 51
269.999997
  0
LINE
  8
LC-005-002-RND-0
 62
     2
  6
DASHDOT
 10
311.812347
 20
358.305084
 11
311.812347
 21
345.081940
  0
ENDSEC
  0
EOF
