  0
SECTION
  2
HEADER
  9
$LIMMIN
 10
46.363518
 20
252.188232
  9
$LIMMAX
 10
190.136307
 20
291.074799
  9
$EXTMIN
 10
46.363518
 20
252.188232
  9
$EXTMAX
 10
190.136307
 20
291.074799
  0
ENDSEC
  0
SECTION
  2
TABLES
  0
TABLE
  2
LTYPE
 70
     3
  0
LTYPE
  2
CONTINUOUS
 70
    64
  3
Ausgezogene Linie
 72
    65
 73
     0
 40
0.0
  0
LTYPE
  2
DASHED
 70
    64
  3
__ __ __ __ __ __ __ __ __ __ __ __ __ __ __
 72
    65
 73
     2
 40
0.75
 49
0.5
 49
-0.25
  0
LTYPE
  2
DASHDOT
 70
    64
  3
__ . __ . __ . __ . __ . __ . __ . __ . __ . __
 72
    65
 73
     4
 40
1.0
 49
0.5
 49
-0.25
 49
0.0
 49
-0.25
  0
ENDTAB
  0
TABLE
  2
LAYER
 70
     4
  0
LAYER
  2
LC-003-002-----0
 70
    64
 62
     7
  6
CONTINUOUS
  0
LAYER
  2
LC-005-002-RND-0
 70
    64
 62
     7
  6
CONTINUOUS
  0
LAYER
  2
LC-004-006-----0
 70
    64
 62
     7
  6
CONTINUOUS
  0
LAYER
  2
LC-006-012-----0
 70
    64
 62
     7
  6
CONTINUOUS
  0
ENDTAB
  0
TABLE
  2
STYLE
 70
     1
  0
STYLE
  2
TXT8
 70
    64
 40
0.0
 41
1.0
 50
0.0
 71
     0
 42
3.500000
  3
TXT8
  4

  0
ENDTAB
  0
ENDSEC
  0
SECTION
  2
BLOCKS
  0
ENDSEC
  0
SECTION
  2
ENTITIES
  0
ARC
  8
LC-003-002-----0
 62
     1
  6
CONTINUOUS
 10
179.262711
 20
275.070007
 40
1.000000
 50
130.782372
 51
269.217633
  0
LINE
  8
LC-003-002-----0
 62
     1
  6
CONTINUOUS
 10
94.433723
 20
273.981232
 11
80.433723
 21
273.981232
  0
LINE
  8
LC-003-002-----0
 62
     1
  6
CONTINUOUS
 10
94.433723
 20
270.481232
 11
80.433723
 21
270.481232
  0
LINE
  8
LC-005-002-RND-0
 62
     2
  6
DASHDOT
 10
46.363518
 20
272.231232
 11
129.124420
 21
272.231232
  0
LINE
  8
LC-003-002-----0
 62
     1
  6
CONTINUOUS
 10
63.183723
 20
287.731232
 11
71.583725
 21
287.731232
  0
LINE
  8
LC-003-002-----0
 62
     1
  6
CONTINUOUS
 10
63.183723
 20
256.731232
 11
71.583725
 21
256.731232
  0
LINE
  8
LC-003-002-----0
 62
     1
  6
CONTINUOUS
 10
62.433723
 20
286.981232
 11
62.433723
 21
257.481232
  0
LINE
  8
LC-003-002-----0
 62
     1
  6
CONTINUOUS
 10
112.433723
 20
286.981232
 11
112.433723
 21
257.481232
  0
ARC
  8
LC-003-002-----0
 62
     1
  6
CONTINUOUS
 10
63.183723
 20
286.981232
 40
0.750000
 50
90.000003
 51
180.000009
  0
ARC
  8
LC-003-002-----0
 62
     1
  6
CONTINUOUS
 10
63.183723
 20
257.481232
 40
0.750000
 50
180.000009
 51
269.999997
  0
ARC
  8
LC-003-002-----0
 62
     1
  6
CONTINUOUS
 10
111.683723
 20
257.481232
 40
0.750000
 50
269.999997
 51
0.000000
  0
ARC
  8
LC-003-002-----0
 62
     1
  6
CONTINUOUS
 10
111.683723
 20
286.981232
 40
0.750000
 50
0.000000
 51
90.000003
  0
LINE
  8
LC-005-002-RND-0
 62
     2
  6
DASHDOT
 10
87.433723
 20
255.731232
 11
87.433723
 21
288.731232
  0
LINE
  8
LC-003-002-----0
 62
     1
  6
CONTINUOUS
 10
88.433723
 20
256.731232
 11
88.433723
 21
270.481232
  0
LINE
  8
LC-003-002-----0
 62
     1
  6
CONTINUOUS
 10
86.433723
 20
256.731232
 11
86.433723
 21
270.481232
  0
ARC
  8
LC-003-002-----0
 62
     1
  6
CONTINUOUS
 10
87.433723
 20
287.731232
 40
1.000000
 50
180.000009
 51
0.000000
  0
ARC
  8
LC-003-002-----0
 62
     1
  6
CONTINUOUS
 10
87.433723
 20
256.731232
 40
1.000000
 50
0.000000
 51
180.000009
  0
LINE
  8
LC-003-002-----0
 62
     1
  6
CONTINUOUS
 10
88.433723
 20
287.731232
 11
101.683723
 21
287.731232
  0
LINE
  8
LC-003-002-----0
 62
     1
  6
CONTINUOUS
 10
88.433723
 20
256.731232
 11
101.683723
 21
256.731232
  0
LINE
  8
LC-003-002-----0
 62
     1
  6
CONTINUOUS
 10
101.683723
 20
256.731232
 11
101.683723
 21
287.731232
  0
LINE
  8
LC-003-002-----0
 62
     1
  6
CONTINUOUS
 10
103.283722
 20
256.731232
 11
103.283722
 21
287.731232
  0
LINE
  8
LC-003-002-----0
 62
     1
  6
CONTINUOUS
 10
101.683723
 20
286.981232
 11
103.283722
 21
286.981232
  0
LINE
  8
LC-003-002-----0
 62
     1
  6
CONTINUOUS
 10
103.283722
 20
287.731232
 11
111.683723
 21
287.731232
  0
LINE
  8
LC-003-002-----0
 62
     1
  6
CONTINUOUS
 10
101.683723
 20
257.481232
 11
103.283722
 21
257.481232
  0
LINE
  8
LC-003-002-----0
 62
     1
  6
CONTINUOUS
 10
103.283722
 20
256.731232
 11
111.683723
 21
256.731232
  0
LINE
  8
LC-003-002-----0
 62
     1
  6
CONTINUOUS
 10
73.183723
 20
256.731232
 11
73.183723
 21
287.731232
  0
LINE
  8
LC-003-002-----0
 62
     1
  6
CONTINUOUS
 10
71.583725
 20
256.731232
 11
71.583725
 21
287.731232
  0
LINE
  8
LC-003-002-----0
 62
     1
  6
CONTINUOUS
 10
73.183723
 20
286.981232
 11
71.583725
 21
286.981232
  0
LINE
  8
LC-003-002-----0
 62
     1
  6
CONTINUOUS
 10
73.183723
 20
257.481232
 11
71.583725
 21
257.481232
  0
LINE
  8
LC-003-002-----0
 62
     1
  6
CONTINUOUS
 10
73.183723
 20
256.731232
 11
86.433723
 21
256.731232
  0
LINE
  8
LC-003-002-----0
 62
     1
  6
CONTINUOUS
 10
73.183723
 20
287.731232
 11
86.433723
 21
287.731232
  0
LINE
  8
LC-003-002-----0
 62
     1
  6
CONTINUOUS
 10
49.434734
 20
280.231232
 11
62.433723
 21
280.231232
  0
LINE
  8
LC-003-002-----0
 62
     1
  6
CONTINUOUS
 10
49.421494
 20
264.231232
 11
62.433723
 21
264.231232
  0
LINE
  8
LC-006-012-----0
 62
     2
  6
CONTINUOUS
 10
49.421494
 20
264.231232
 11
49.655533
 21
267.401581
  0
LINE
  8
LC-006-012-----0
 62
     2
  6
CONTINUOUS
 10
49.655533
 20
267.401581
 11
49.251797
 21
275.060730
  0
LINE
  8
LC-006-012-----0
 62
     2
  6
CONTINUOUS
 10
49.251797
 20
275.060730
 11
49.434734
 21
280.231232
  0
LINE
  8
LC-006-012-----0
 62
     2
  6
CONTINUOUS
 10
127.581940
 20
264.231232
 11
127.581940
 21
268.347595
  0
LINE
  8
LC-006-012-----0
 62
     2
  6
CONTINUOUS
 10
127.581940
 20
268.347595
 11
126.909042
 21
275.458191
  0
LINE
  8
LC-006-012-----0
 62
     2
  6
CONTINUOUS
 10
126.909042
 20
275.458191
 11
126.864799
 21
280.231232
  0
LINE
  8
LC-004-006-----0
 62
     2
  6
DASHED
 10
62.433723
 20
280.231232
 11
112.433723
 21
280.231232
  0
LINE
  8
LC-003-002-----0
 62
     1
  6
CONTINUOUS
 10
112.433723
 20
280.231232
 11
126.864799
 21
280.231232
  0
LINE
  8
LC-004-006-----0
 62
     2
  6
DASHED
 10
62.433723
 20
264.231232
 11
112.433723
 21
264.231232
  0
LINE
  8
LC-003-002-----0
 62
     1
  6
CONTINUOUS
 10
112.433723
 20
264.231232
 11
127.581940
 21
264.231232
  0
LINE
  8
LC-005-002-RND-0
 62
     2
  6
DASHDOT
 10
152.636185
 20
272.231232
 11
190.136307
 21
272.231232
  0
LINE
  8
LC-005-002-RND-0
 62
     2
  6
DASHDOT
 10
171.463257
 20
291.074799
 11
171.463257
 21
252.188232
  0
ARC
  8
LC-003-002-----0
 62
     1
  6
CONTINUOUS
 10
171.463257
 20
272.231232
 40
8.000000
 50
26.711314
 51
133.288683
  0
CIRCLE
  8
LC-003-002-----0
 62
     1
  6
CONTINUOUS
 10
171.463257
 20
272.231232
 40
15.500000
  0
ARC
  8
LC-003-002-----0
 62
     1
  6
CONTINUOUS
 10
165.105087
 20
277.566376
 40
1.000000
 50
250.782372
 51
29.217630
  0
ARC
  8
LC-003-002-----0
 62
     1
  6
CONTINUOUS
 10
170.021988
 20
264.057343
 40
1.000000
 50
10.782369
 51
149.217626
  0
ARC
  8
LC-003-002-----0
 62
     1
  6
CONTINUOUS
 10
171.463257
 20
272.231232
 40
8.000000
 50
146.711316
 51
253.288683
  0
ARC
  8
LC-003-002-----0
 62
     1
  6
CONTINUOUS
 10
171.463257
 20
272.231232
 40
8.000000
 50
266.711316
 51
13.288685
  0
LINE
  8
LC-005-002-RND-0
 62
     2
  6
DASHDOT
 10
170.401489
 20
266.209625
 11
169.899750
 21
263.364105
  0
LINE
  8
LC-005-002-RND-0
 62
     2
  6
DASHDOT
 10
166.779282
 20
276.161560
 11
164.565857
 21
278.018829
  0
LINE
  8
LC-004-006-----0
 62
     2
  6
DASHED
 10
184.963257
 20
270.481232
 11
186.864151
 21
270.481232
  0
LINE
  8
LC-004-006-----0
 62
     2
  6
DASHED
 10
184.963257
 20
273.981232
 11
186.864151
 21
273.981232
  0
LINE
  8
LC-005-002-RND-0
 62
     2
  6
DASHDOT
 10
181.129684
 20
280.342316
 11
184.128098
 21
282.858307
  0
LINE
  8
LC-004-006-----0
 62
     2
  6
DASHED
 10
184.963257
 20
270.481232
 11
184.963257
 21
273.981232
  0
LINE
  8
LC-004-006-----0
 62
     2
  6
DASHED
 10
181.772476
 20
279.576294
 11
183.955002
 21
281.407654
  0
LINE
  8
LC-004-006-----0
 62
     2
  6
DASHED
 10
180.486893
 20
281.108368
 11
182.669434
 21
282.939728
  0
LINE
  8
LC-005-002-RND-0
 62
     2
  6
DASHDOT
 10
159.605637
 20
276.547058
 11
155.927536
 21
277.885773
  0
LINE
  8
LC-004-006-----0
 62
     2
  6
DASHED
 10
159.947662
 20
277.486755
 11
157.270386
 21
278.461182
  0
LINE
  8
LC-004-006-----0
 62
     2
  6
DASHED
 10
159.263626
 20
275.607361
 11
156.586349
 21
276.581818
  0
LINE
  8
LC-005-002-RND-0
 62
     2
  6
DASHDOT
 10
173.654465
 20
259.804321
 11
174.334152
 21
255.949631
  0
LINE
  8
LC-004-006-----0
 62
     2
  6
DASHED
 10
172.669662
 20
259.630676
 11
173.164398
 21
256.824860
  0
LINE
  8
LC-004-006-----0
 62
     2
  6
DASHED
 10
174.639267
 20
259.977966
 11
175.134003
 21
257.172150
  0
LINE
  8
LC-005-002-RND-0
 62
     2
  6
DASHDOT
 10
94.433723
 20
269.211121
 11
94.433723
 21
275.372314
  0
LINE
  8
LC-005-002-RND-0
 62
     2
  6
DASHDOT
 10
80.433723
 20
269.211121
 11
80.433723
 21
275.372314
  0
ARC
  8
LC-003-002-----0
 62
     1
  6
CONTINUOUS
 10
94.433723
 20
272.231232
 40
1.750000
 50
269.999997
 51
90.000003
  0
ARC
  8
LC-003-002-----0
 62
     1
  6
CONTINUOUS
 10
80.433723
 20
272.231232
 40
1.750000
 50
90.000003
 51
269.999997
  0
LINE
  8
LC-003-002-----0
 62
     1
  6
CONTINUOUS
 10
86.433723
 20
273.981232
 11
86.433723
 21
287.731232
  0
LINE
  8
LC-003-002-----0
 62
     1
  6
CONTINUOUS
 10
88.433723
 20
273.981232
 11
88.433723
 21
287.731232
  0
LINE
  8
LC-003-002-----0
 62
     1
  6
CONTINUOUS
 10
126.898254
 20
276.622101
 11
112.433723
 21
276.622101
  0
LINE
  8
LC-003-002-----0
 62
     1
  6
CONTINUOUS
 10
126.884979
 20
278.054504
 11
112.433723
 21
278.054504
  0
LINE
  8
LC-004-006-----0
 62
     2
  6
DASHED
 10
112.433723
 20
278.054504
 11
62.433723
 21
278.054504
  0
LINE
  8
LC-003-002-----0
 62
     1
  6
CONTINUOUS
 10
62.433723
 20
278.054504
 11
49.357719
 21
278.054504
  0
LINE
  8
LC-004-006-----0
 62
     2
  6
DASHED
 10
112.433723
 20
276.622101
 11
62.433723
 21
276.622101
  0
LINE
  8
LC-003-002-----0
 62
     1
  6
CONTINUOUS
 10
62.433723
 20
276.622101
 11
49.307037
 21
276.622101
  0
ARC
  8
LC-003-002-----0
 62
     1
  6
CONTINUOUS
 10
171.463257
 20
272.231232
 40
8.400000
 50
24.060400
 51
135.939602
  0
ARC
  8
LC-003-002-----0
 62
     1
  6
CONTINUOUS
 10
179.262711
 20
275.070007
 40
0.600000
 50
102.442210
 51
297.557789
  0
ARC
  8
LC-003-002-----0
 62
     1
  6
CONTINUOUS
 10
171.463257
 20
272.231232
 40
8.400000
 50
264.060397
 51
15.939601
  0
ARC
  8
LC-003-002-----0
 62
     1
  6
CONTINUOUS
 10
170.021988
 20
264.057343
 40
0.600000
 50
342.442212
 51
177.557789
  0
ARC
  8
LC-003-002-----0
 62
     1
  6
CONTINUOUS
 10
171.463257
 20
272.231232
 40
8.400000
 50
144.060397
 51
255.939602
  0
CIRCLE
  8
LC-003-002-----0
 62
     1
  6
CONTINUOUS
 10
171.463257
 20
272.231232
 40
14.500000
  0
ARC
  8
LC-003-002-----0
 62
     1
  6
CONTINUOUS
 10
165.105087
 20
277.566376
 40
0.600000
 50
222.442217
 51
57.557792
  0
ENDSEC
  0
EOF
