  0
SECTION
  2
HEADER
  9
$ACADVER
  1
AC1014
  9
$ACADMAINTVER
 70
           0
  9
$DWGCODEPAGE
  3
DOS850
  9
$INSBASE
 10
0.0
 20
0.0
 30
0.0
  9
$EXTMIN
 10
285.670898
 20
348.450189260197
 30
0.0
  9
$EXTMAX
 10
538.716493061176
 20
457.466827927117
 30
0.0
  9
$LIMMIN
 10
285.670898
 20
348.450189260197
  9
$LIMMAX
 10
538.716493061176
 20
457.466827927117
  9
$ORTHOMODE
 70
           0
  9
$REGENMODE
 70
           1
  9
$FILLMODE
 70
           1
  9
$QTEXTMODE
 70
           0
  9
$MIRRTEXT
 70
           1
  9
$DRAGMODE
 70
           2
  9
$LTSCALE
 40
5.0
  9
$OSMODE
 70
           0
  9
$ATTMODE
 70
           1
  9
$TEXTSIZE
 40
0.2
  9
$TRACEWID
 40
0.05
  9
$TEXTSTYLE
  7
TXT
  9
$CLAYER
  8
0
  9
$CELTYPE
  6
CONTINUOUS
  9
$CECOLOR
 62
         256
  9
$CELTSCALE
 40
1.0
  9
$DELOBJ
 70
           1
  9
$DISPSILH
 70
           0
  9
$DIMSCALE
 40
1.0
  9
$DIMASZ
 40
3.5
  9
$DIMEXO
 40
0.0625
  9
$DIMDLI
 40
0.38
  9
$DIMRND
 40
0.0
  9
$DIMDLE
 40
0.0
  9
$DIMEXE
 40
0.18
  9
$DIMTP
 40
0.0
  9
$DIMTM
 40
0.0
  9
$DIMTXT
 40
3.5
  9
$DIMCEN
 40
0.09
  9
$DIMTSZ
 40
0.0
  9
$DIMTOL
 70
           0
  9
$DIMLIM
 70
           0
  9
$DIMTIH
 70
           1
  9
$DIMTOH
 70
           1
  9
$DIMSE1
 70
           0
  9
$DIMSE2
 70
           0
  9
$DIMTAD
 70
           0
  9
$DIMZIN
 70
           0
  9
$DIMBLK
  1

  9
$DIMASO
 70
           1
  9
$DIMSHO
 70
           1
  9
$DIMPOST
  1

  9
$DIMAPOST
  1

  9
$DIMALT
 70
           0
  9
$DIMALTD
 70
           2
  9
$DIMALTF
 40
25.4
  9
$DIMLFAC
 40
1.0
  9
$DIMTOFL
 70
           0
  9
$DIMTVP
 40
0.0
  9
$DIMTIX
 70
           0
  9
$DIMSOXD
 70
           0
  9
$DIMSAH
 70
           0
  9
$DIMBLK1
  1

  9
$DIMBLK2
  1

  9
$DIMSTYLE
  2
STANDARD
  9
$DIMCLRD
 70
           0
  9
$DIMCLRE
 70
           0
  9
$DIMCLRT
 70
           0
  9
$DIMTFAC
 40
1.0
  9
$DIMGAP
 40
0.09
  9
$DIMJUST
 70
           0
  9
$DIMSD1
 70
           0
  9
$DIMSD2
 70
           0
  9
$DIMTOLJ
 70
           1
  9
$DIMTZIN
 70
           0
  9
$DIMALTZ
 70
           0
  9
$DIMALTTZ
 70
           0
  9
$DIMFIT
 70
           3
  9
$DIMUPT
 70
           0
  9
$DIMUNIT
 70
           2
  9
$DIMDEC
 70
           4
  9
$DIMTDEC
 70
           4
  9
$DIMALTU
 70
           2
  9
$DIMALTTD
 70
           2
  9
$DIMTXSTY
  7
TXT
  9
$DIMAUNIT
 70
           0
  9
$LUNITS
 70
           2
  9
$LUPREC
 70
           2
  9
$SKETCHINC
 40
0.1
  9
$FILLETRAD
 40
0.0
  9
$AUNITS
 70
           0
  9
$AUPREC
 70
           2
  9
$MENU
  1
acad
  9
$ELEVATION
 40
0.0
  9
$PELEVATION
 40
0.0
  9
$THICKNESS
 40
0.0
  9
$LIMCHECK
 70
           0
  9
$BLIPMODE
 70
           1
  9
$CHAMFERA
 40
0.0
  9
$CHAMFERB
 40
0.0
  9
$CHAMFERC
 40
0.0
  9
$CHAMFERD
 40
0.0
  9
$SKPOLY
 70
           0
  9
$TDCREATE
 40
0.000000000
  9
$TDUPDATE
 40
0.000000000
  9
$TDINDWG
 40
0.0000000000
  9
$TDUSRTIMER
 40
0.0000000000
  9
$USRTIMER
 70
           1
  9
$ANGBASE
 50
0.0
  9
$ANGDIR
 70
           0
  9
$PDMODE
 70
           2
  9
$PDSIZE
 40
0.5
  9
$PLINEWID
 40
0.0
  9
$COORDS
 70
           0
  9
$SPLFRAME
 70
           0
  9
$SPLINETYPE
 70
           6
  9
$SPLINESEGS
 70
           8
  9
$ATTDIA
 70
           0
  9
$ATTREQ
 70
           1
  9
$HANDLING
 70
           1
  9
$HANDSEED
  5
B9
  9
$SURFTAB1
 70
           6
  9
$SURFTAB2
 70
           6
  9
$SURFTYPE
 70
           6
  9
$SURFU
 70
           6
  9
$SURFV
 70
           6
  9
$UCSNAME
  2

  9
$UCSORG
 10
0.0
 20
0.0
 30
0.0
  9
$UCSXDIR
 10
1.0
 20
0.0
 30
0.0
  9
$UCSYDIR
 10
0.0
 20
1.0
 30
0.0
  9
$PUCSNAME
  2

  9
$PUCSORG
 10
0.0
 20
0.0
 30
0.0
  9
$PUCSXDIR
 10
1.0
 20
0.0
 30
0.0
  9
$PUCSYDIR
 10
0.0
 20
1.0
 30
0.0
  9
$USERI1
 70
           0
  9
$USERI2
 70
           0
  9
$USERI3
 70
           0
  9
$USERI4
 70
           0
  9
$USERI5
 70
           0
  9
$USERR1
 40
0.0
  9
$USERR2
 40
0.0
  9
$USERR3
 40
0.0
  9
$USERR4
 40
0.0
  9
$USERR5
 40
0.0
  9
$WORLDVIEW
 70
           1
  9
$SHADEDGE
 70
           3
  9
$SHADEDIF
 70
          70
  9
$TILEMODE
 70
           1
  9
$MAXACTVP
 70
          16
  9
$PINSBASE
 10
0.0
 20
0.0
 30
0.0
  9
$PLIMCHECK
 70
           0
  9
$PEXTMIN
 10
1.000000000000E+20
 20
1.000000000000E+20
 30
1.000000000000E+20
  9
$PEXTMAX
 10
-1.000000000000E+20
 20
-1.000000000000E+20
 30
-1.000000000000E+20
  9
$PLIMMIN
 10
0.0
 20
0.0
  9
$PLIMMAX
 10
12.0
 20
9.0
  9
$UNITMODE
 70
           0
  9
$VISRETAIN
 70
           0
  9
$PLINEGEN
 70
           1
  9
$PSLTSCALE
 70
           0
  9
$TREEDEPTH
 70
        3020
  9
$PICKSTYLE
 70
           1
  9
$CMLSTYLE
  2
STANDARD
  9
$CMLJUST
 70
           0
  9
$CMLSCALE
 40
1.0
  9
$PROXYGRAPHICS
 70
           0
  9
$MEASUREMENT
 70
           0
  0
ENDSEC
  0
SECTION
  2
CLASSES
  0
CLASS
  1
LWPOLYLINE
  2
AcDbPolyline
  3
"AutoCAD"
 90
        0
280
           0
281
           1
  0
CLASS
  1
IMAGE
  2
AcDbRasterImage
  3
ISM
 90
      127
280
           0
281
           1
  0
CLASS
  1
OLE2FRAME
  2
AcDbOle2Frame
  3
""
 90
        0
280
           0
281
           1
  0
CLASS
  1
HATCH
  2
AcDbHatch
  3
"ACAD_SEDONA"
 90
        0
280
           0
281
           1
  0
CLASS
  1
DICTIONARYVAR
  2
AcDbDictionaryVar
  3
"AutoCAD"
 90
        0
280
           0
281
           0
  0
CLASS
  1
RASTERVARIABLES
  2
AcDbRasterVariables
  3
ISM
 90
        0
280
           0
281
           0
  0
CLASS
  1
IMAGEDEF
  2
AcDbRasterImageDef
  3
ISM
 90
        0
280
           0
281
           0
  0
CLASS
  1
IMAGEDEF_REACTOR
  2
AcDbRasterImageDefReactor
  3
ISM
 90
        1
280
           0
281
           0
  0
CLASS
  1
IDBUFFER
  2
AcDbIdBuffer
  3
"Acad"
 90
        0
280
           0
281
           0
  0
CLASS
  1
SPATIAL_FILTER
  2
AcDbSpatialFilter
  3
"Acad"
 90
        0
280
           0
281
           0
  0
CLASS
  1
XRECORD
  2
AcDbXrecord
  3
"<Built In>"
 90
        0
280
           0
281
           0
  0
CLASS
  1
SORTENTSTABLE
  2
AcDbSortentsTable
  3
"AutoCAD"
 90
        0
280
           0
281
           0
  0
CLASS
  1
LAYER_INDEX
  2
AcDbLayerIndex
  3
"Acad"
 90
        0
280
           0
281
           0
  0
CLASS
  1
SPATIAL_INDEX
  2
AcDbSpatialIndex
  3
"Acad"
 90
        0
280
           0
281
           0
  0
CLASS
  1
OBJECT_PTR
  2
CAseDLPNTableRecord
  3
"ASE-LPNTableRecord"
 90
        1
280
           0
281
           0
  0
CLASS
  1
LAYOUT
  2
AcDbLayout
  3
"AutoCAD 2000"
 90
        1
280
           0
281
           0
  0
CLASS
  1
PLOTSETTINGS
  2
AcDbPlotSettings
  3
"AutoCAD 2000"
 90
        1
280
           0
281
           0
  0
CLASS
  1
ACDBDICTIONARYWDFLT
  2
AcDbDictionaryWithDefault
  3
"AutoCAD 2000"
 90
        1
280
           0
281
           0
  0
CLASS
  1
ACDBPLACEHOLDER
  2
AcDbPlaceHolder
  3
"AutoCAD 2000"
 90
        1
280
           0
281
           0
  0
CLASS
  1
VBA_PROJECT
  2
AcDbVbaProject
  3
"acadvba"
 90
        1
280
           0
281
           0
  0
CLASS
  1
WIPEOUT
  2
AcDbWipeout
  3
WipeOut|AutoCAD Express Tool|expresstools@autodesk.com
 90
      127
280
           0
281
           1
  0
CLASS
  1
WIPEOUTVARIABLES
  2
AcDbWipeoutVariables
  3
WipeOut|AutoCAD Express Tool|expresstools@autodesk.com
 90
        0
280
           0
281
           0
  0
CLASS
  1
RTEXT
  2
RText
  3
RText|AutoCAD Express Tool|expresstools@autodesk.com
 90
        0
280
           0
281
           1
  0
CLASS
  1
ARCALIGNEDTEXT
  2
AcDbArcAlignedText
  3
ATEXT|AutoCAD Express Tool|expresstools@autodesk.com
 90
        0
280
           0
281
           1
  0
ENDSEC
  0
SECTION
  2
TABLES
  0
TABLE
  2
VPORT
  5
7
100
AcDbSymbolTable
 70
           1
  0
VPORT
  5
15
100
AcDbSymbolTableRecord
100
AcDbViewportTableRecord
  2
*ACTIVE
 70
           0
 10
0.0
 20
0.0
 11
1.0
 21
1.0
 12
6.591288
 22
4.579184
 13
0.0
 23
0.0
 14
1.0
 24
1.0
 15
0.0
 25
0.0
 16
0.0
 26
0.0
 36
1.0
 17
0.0
 27
0.0
 37
0.0
 40
9.158369
 41
0.688564
 42
50.0
 43
0.0
 44
0.0
 50
0.0
 51
0.0
 71
           0
 72
         100
 73
           1
 74
           1
 75
           0
 76
           0
 77
           0
 78
           0
  0
ENDTAB
  0
TABLE
  2
LTYPE
  5
4
100
AcDbSymbolTable
 70
           6
  0
LTYPE
  5
11
100
AcDbSymbolTableRecord
100
AcDbLinetypeTableRecord
  2
BYBLOCK
 70
          64
  3

 72
          65
 73
           0
 40
0.0
  0
LTYPE
  5
12
100
AcDbSymbolTableRecord
100
AcDbLinetypeTableRecord
  2
BYLAYER
 70
          64
  3

 72
          65
 73
           0
 40
0.0
  0
LTYPE
  5
13
100
AcDbSymbolTableRecord
100
AcDbLinetypeTableRecord
  2
CONTINUOUS
 70
          64
  3
Solid line
 72
          65
 73
           0
 40
0.0
  0
LTYPE
  5
1D
100
AcDbSymbolTableRecord
100
AcDbLinetypeTableRecord
  2
AUSGEZOGEN
 70
           0
  3

 72
          65
 73
           2
 40
0.5
 49
0.25
 74
           0
 49
-0.25
 74
           0
  0
LTYPE
  5
1E
100
AcDbSymbolTableRecord
100
AcDbLinetypeTableRecord
  2
STRICHLINIE
 70
           0
  3

 72
          65
 73
           2
 40
0.5
 49
0.25
 74
           0
 49
-0.25
 74
           0
  0
LTYPE
  5
1F
100
AcDbSymbolTableRecord
100
AcDbLinetypeTableRecord
  2
STRICHPUNKT
 70
           0
  3

 72
          65
 73
           4
 40
1.0
 49
0.5
 74
           0
 49
-0.25
 74
           0
 49
0.0
 74
           0
 49
-0.25
 74
           0
  0
ENDTAB
  0
TABLE
  2
LAYER
  5
2
100
AcDbSymbolTable
 70
           5
  0
LAYER
  5
14
100
AcDbSymbolTableRecord
100
AcDbLayerTableRecord
  2
0
 70
           0
 62
           7
  6
CONTINUOUS
  0
LAYER
  5
20
100
AcDbSymbolTableRecord
100
AcDbLayerTableRecord
  2
LC-003-002-----0
 70
           0
 62
           7
  6
CONTINUOUS
  0
LAYER
  5
21
100
AcDbSymbolTableRecord
100
AcDbLayerTableRecord
  2
LC-005-002-RND-0
 70
           0
 62
           7
  6
CONTINUOUS
  0
LAYER
  5
22
100
AcDbSymbolTableRecord
100
AcDbLayerTableRecord
  2
LC-004-006-----0
 70
           0
 62
           7
  6
CONTINUOUS
  0
LAYER
  5
23
100
AcDbSymbolTableRecord
100
AcDbLayerTableRecord
  2
LC-006-012-----0
 70
           0
 62
           7
  6
CONTINUOUS
  0
ENDTAB
  0
TABLE
  2
STYLE
  5
3
100
AcDbSymbolTable
 70
           1
  0
STYLE
  5
17
100
AcDbSymbolTableRecord
100
AcDbTextStyleTableRecord
  2
TXT
 70
           0
 40
3.5
 41
1.0
 50
0.0
 71
           0
 42
3.5
  3
TXT
  4

  0
ENDTAB
  0
TABLE
  2
VIEW
  5
5
100
AcDbSymbolTable
 70
           0
  0
ENDTAB
  0
TABLE
  2
UCS
  5
6
100
AcDbSymbolTable
 70
           0
  0
ENDTAB
  0
TABLE
  2
APPID
  5
8
100
AcDbSymbolTable
 70
           2
  0
APPID
  5
16
100
AcDbSymbolTableRecord
100
AcDbRegAppTableRecord
  2
ACAD
 70
           0
  0
APPID
  5
24
100
AcDbSymbolTableRecord
100
AcDbRegAppTableRecord
  2
MegaCADPntStyle
 70
           0
  0
ENDTAB
  0
TABLE
  2
DIMSTYLE
  5
9
100
AcDbSymbolTable
 70
           1
  0
DIMSTYLE
105
18
100
AcDbSymbolTableRecord
100
AcDbDimStyleTableRecord
  2
STANDARD
 70
           0
  3

  4

  5

  6

  7

 40
1.0
 41
0.18
 42
0.0625
 43
0.38
 44
0.18
 45
0.0
 46
0.0
 47
0.0
 48
0.0
 71
           0
 72
           0
 73
           1
 74
           1
 75
           0
 76
           0
 77
           0
 78
           0
140
0.18
141
0.09
142
0.0
143
25.4
144
1.0
145
0.0
146
1.0
147
0.09
170
           0
171
           2
172
           0
173
           0
174
           0
175
           0
176
           0
177
           0
178
           0
270
           2
271
           4
272
           4
273
           2
274
           2
275
           0
280
           0
281
           0
282
           0
283
           1
284
           0
285
           0
286
           0
287
           0
288
           0
340
17
  0
ENDTAB
  0
TABLE
  2
BLOCK_RECORD
  5
1
100
AcDbSymbolTable
 70
           2
  0
BLOCK_RECORD
  5
A
100
AcDbSymbolTableRecord
100
AcDbBlockTableRecord
  2
*MODEL_SPACE
  0
BLOCK_RECORD
  5
B
100
AcDbSymbolTableRecord
100
AcDbBlockTableRecord
  2
*PAPER_SPACE
  0
BLOCK_RECORD
  5
25
102
{ACAD_XDICTIONARY
360
5C
102
}
100
AcDbSymbolTableRecord
100
AcDbBlockTableRecord
  2
ELIPPSE
  0
BLOCK_RECORD
  5
26
102
{ACAD_XDICTIONARY
360
5C
102
}
100
AcDbSymbolTableRecord
100
AcDbBlockTableRecord
  2
*X1
  0
ENDTAB
  0
ENDSEC
  0
SECTION
  2
BLOCKS
  0
BLOCK
  5
D
100
AcDbEntity
  8
0
100
AcDbBlockBegin
  2
*MODEL_SPACE
 70
           0
 10
0.0
 20
0.0
 30
0.0
  3
*MODEL_SPACE
  1

  0
ENDBLK
  5
E
100
AcDbEntity
  8
0
100
AcDbBlockEnd
  0
BLOCK
  5
F
100
AcDbEntity
 67
           1
  8
0
100
AcDbBlockBegin
  2
*PAPER_SPACE
 70
           0
 10
0.0
 20
0.0
 30
0.0
  3
*PAPER_SPACE
  1

  0
ENDBLK
  5
10
100
AcDbEntity
 67
           1
  8
0
100
AcDbBlockEnd
  0
BLOCK
  5
A2
100
AcDbEntity
  8
0
100
AcDbBlockBegin
  2
ELIPPSE
 70
          64
 10
0.0
 20
0.0
 30
0.0
  3
ELIPPSE
  1

  0
CIRCLE
  5
A3
100
AcDbEntity
  8
0
  6
BYBLOCK
 62
           0
100
AcDbCircle
 10
0.0
 20
0.0
 30
0.0
 40
1.0
  0
ENDBLK
  5
A4
100
AcDbEntity
  8
0
  6
BYBLOCK
 62
           0
100
AcDbBlockEnd
  0
BLOCK
  5
A5
100
AcDbEntity
  8
0
100
AcDbBlockBegin
  2
*X1
 70
          65
 10
0.0
 20
0.0
 30
0.0
  3
*X1
  1

  0
LINE
  5
A6
100
AcDbEntity
  8
0
  6
BYBLOCK
 62
           0
100
AcDbLine
 10
382.751447494463
 20
423.480798090808
 30
0.0
 11
384.414612
 21
425.143962596345
 31
0.0
  0
LINE
  5
A7
100
AcDbEntity
  8
0
  6
BYBLOCK
 62
           0
100
AcDbLine
 10
378.893525089566
 20
423.016988235607
 30
0.0
 11
382.771086853959
 21
426.89455
 31
0.0
  0
LINE
  5
A8
100
AcDbEntity
  8
0
  6
BYBLOCK
 62
           0
100
AcDbLine
 10
382.771086853959
 20
426.89455
 30
0.0
 11
383.671077698686
 21
427.794540844727
 31
0.0
  0
LINE
  5
A9
100
AcDbEntity
  8
0
  6
BYBLOCK
 62
           0
100
AcDbLine
 10
375.594219667304
 20
423.11179536304
 30
0.0
 11
379.376974304264
 21
426.89455
 31
0.0
  0
LINE
  5
AA
100
AcDbEntity
  8
0
  6
BYBLOCK
 62
           0
100
AcDbLine
 10
379.376974304264
 20
426.89455
 30
0.0
 11
380.276965148991
 21
427.794540844727
 31
0.0
  0
LINE
  5
AB
100
AcDbEntity
  8
0
  6
BYBLOCK
 62
           0
100
AcDbLine
 10
372.803428903275
 20
423.715117148707
 30
0.0
 11
375.982861754569
 21
426.89455
 31
0.0
  0
LINE
  5
AC
100
AcDbEntity
  8
0
  6
BYBLOCK
 62
           0
100
AcDbLine
 10
375.982861754569
 20
426.89455
 30
0.0
 11
376.882852599295
 21
427.794540844727
 31
0.0
  0
LINE
  5
AD
100
AcDbEntity
  8
0
  6
BYBLOCK
 62
           0
100
AcDbLine
 10
381.682870909842
 20
432.594559155273
 30
0.0
 11
382.582861754569
 21
433.49455
 31
0.0
  0
LINE
  5
AE
100
AcDbEntity
  8
0
  6
BYBLOCK
 62
           0
100
AcDbLine
 10
382.582861754569
 20
433.49455
 30
0.0
 11
383.782861754569
 21
434.69455
 31
0.0
  0
LINE
  5
AF
100
AcDbEntity
  8
0
  6
BYBLOCK
 62
           0
100
AcDbLine
 10
370.157451923655
 20
424.463252718782
 30
0.0
 11
373.4887400496
 21
427.794540844727
 31
0.0
  0
LINE
  5
B0
100
AcDbEntity
  8
0
  6
BYBLOCK
 62
           0
100
AcDbLine
 10
378.288758360147
 20
432.594559155273
 30
0.0
 11
379.188749204873
 21
433.49455
 31
0.0
  0
LINE
  5
B1
100
AcDbEntity
  8
0
  6
BYBLOCK
 62
           0
100
AcDbLine
 10
379.188749204873
 20
433.49455
 30
0.0
 11
380.388749204873
 21
434.69455
 31
0.0
  0
LINE
  5
B2
100
AcDbEntity
  8
0
  6
BYBLOCK
 62
           0
100
AcDbLine
 10
368.429489459995
 20
426.129402804817
 30
0.0
 11
370.094627499904
 21
427.794540844727
 31
0.0
  0
LINE
  5
B3
100
AcDbEntity
  8
0
  6
BYBLOCK
 62
           0
100
AcDbLine
 10
374.894645810451
 20
432.594559155273
 30
0.0
 11
375.794636655178
 21
433.49455
 31
0.0
  0
LINE
  5
B4
100
AcDbEntity
  8
0
  6
BYBLOCK
 62
           0
100
AcDbLine
 10
375.794636655178
 20
433.49455
 30
0.0
 11
376.994636655178
 21
434.69455
 31
0.0
  0
LINE
  5
B5
100
AcDbEntity
  8
0
  6
BYBLOCK
 62
           0
100
AcDbLine
 10
367.817761301425
 20
428.911787195943
 30
0.0
 11
368.42118353144
 21
429.515209425958
 31
0.0
  0
LINE
  5
B6
100
AcDbEntity
  8
0
  6
BYBLOCK
 62
           0
100
AcDbLine
 10
371.500533260756
 20
432.594559155273
 30
0.0
 11
373.600524105482
 21
434.69455
 31
0.0
  0
LINE
  5
B7
100
AcDbEntity
  8
0
  6
BYBLOCK
 62
           0
100
AcDbLine
 10
368.114011882342
 20
432.602150326555
 30
0.0
 11
370.206411555787
 21
434.69455
 31
0.0
  0
ENDBLK
  5
B8
100
AcDbEntity
  8
0
  6
BYBLOCK
 62
           0
100
AcDbBlockEnd
  0
ENDSEC
  0
SECTION
  2
ENTITIES
  0
LINE
  5
27
100
AcDbEntity
  8
LC-005-002-RND-0
  6
STRICHPUNKT
 62
           2
100
AcDbLine
 10
285.670898
 20
404.19455
 30
0.0
 11
409.366058
 21
404.19455
 31
0.0
  0
LINE
  5
28
100
AcDbEntity
  8
LC-003-002-----0
  6
AUSGEZOGEN
 62
           1
100
AcDbLine
 10
305.664612
 20
427.69455
 30
0.0
 11
349.164612
 21
427.69455
 31
0.0
  0
LINE
  5
29
100
AcDbEntity
  8
LC-003-002-----0
  6
AUSGEZOGEN
 62
           1
100
AcDbLine
 10
305.664612
 20
380.69455
 30
0.0
 11
349.164612
 21
380.69455
 31
0.0
  0
LINE
  5
2A
100
AcDbEntity
  8
LC-003-002-----0
  6
AUSGEZOGEN
 62
           1
100
AcDbLine
 10
351.414612
 20
454.19455
 30
0.0
 11
366.414612
 21
454.19455
 31
0.0
  0
LINE
  5
2B
100
AcDbEntity
  8
LC-003-002-----0
  6
AUSGEZOGEN
 62
           1
100
AcDbLine
 10
351.414612
 20
354.19455
 30
0.0
 11
366.414612
 21
354.19455
 31
0.0
  0
LINE
  5
2C
100
AcDbEntity
  8
LC-003-002-----0
  6
AUSGEZOGEN
 62
           1
100
AcDbLine
 10
304.414612
 20
426.44455
 30
0.0
 11
304.414612
 21
381.94455
 31
0.0
  0
LINE
  5
2D
100
AcDbEntity
  8
LC-003-002-----0
  6
AUSGEZOGEN
 62
           1
100
AcDbLine
 10
367.414612
 20
355.19455
 30
0.0
 11
367.414612
 21
453.19455
 31
0.0
  0
LINE
  5
2E
100
AcDbEntity
  8
LC-003-002-----0
  6
AUSGEZOGEN
 62
           1
100
AcDbLine
 10
350.414612
 20
355.19455
 30
0.0
 11
350.414612
 21
453.19455
 31
0.0
  0
LINE
  5
2F
100
AcDbEntity
  8
LC-003-002-----0
  6
AUSGEZOGEN
 62
           1
100
AcDbLine
 10
349.164612
 20
427.69455
 30
0.0
 11
349.164612
 21
380.69455
 31
0.0
  0
LINE
  5
30
100
AcDbEntity
  8
LC-003-002-----0
  6
AUSGEZOGEN
 62
           1
100
AcDbLine
 10
349.164612
 20
426.69455
 30
0.0
 11
350.414612
 21
426.69455
 31
0.0
  0
LINE
  5
31
100
AcDbEntity
  8
LC-003-002-----0
  6
AUSGEZOGEN
 62
           1
100
AcDbLine
 10
349.164612
 20
381.69455
 30
0.0
 11
350.414612
 21
381.69455
 31
0.0
  0
ARC
  5
32
100
AcDbEntity
  8
LC-003-002-----0
  6
AUSGEZOGEN
 62
           1
100
AcDbCircle
 10
305.664612
 20
381.94455
 30
0.0
 40
1.25
100
AcDbArc
 50
180.000008999998
 51
269.999997000002
  0
ARC
  5
33
100
AcDbEntity
  8
LC-003-002-----0
  6
AUSGEZOGEN
 62
           1
100
AcDbCircle
 10
305.664612
 20
426.44455
 30
0.0
 40
1.25
100
AcDbArc
 50
90.000003000003
 51
180.000008999998
  0
LINE
  5
34
100
AcDbEntity
  8
LC-003-002-----0
  6
AUSGEZOGEN
 62
           1
100
AcDbLine
 10
351.414612
 20
354.19455
 30
0.0
 11
350.414612
 21
355.19455
 31
0.0
  0
LINE
  5
35
100
AcDbEntity
  8
LC-003-002-----0
  6
AUSGEZOGEN
 62
           1
100
AcDbLine
 10
350.414612
 20
453.19455
 30
0.0
 11
351.414612
 21
454.19455
 31
0.0
  0
LINE
  5
36
100
AcDbEntity
  8
LC-003-002-----0
  6
AUSGEZOGEN
 62
           1
100
AcDbLine
 10
351.414612
 20
354.19455
 30
0.0
 11
351.414612
 21
454.19455
 31
0.0
  0
LINE
  5
37
100
AcDbEntity
  8
LC-003-002-----0
  6
AUSGEZOGEN
 62
           1
100
AcDbLine
 10
366.414612
 20
454.19455
 30
0.0
 11
367.414612
 21
453.19455
 31
0.0
  0
LINE
  5
38
100
AcDbEntity
  8
LC-003-002-----0
  6
AUSGEZOGEN
 62
           1
100
AcDbLine
 10
366.414612
 20
354.19455
 30
0.0
 11
367.414612
 21
355.19455
 31
0.0
  0
LINE
  5
39
100
AcDbEntity
  8
LC-003-002-----0
  6
AUSGEZOGEN
 62
           1
100
AcDbLine
 10
366.414612
 20
454.19455
 30
0.0
 11
366.414612
 21
354.19455
 31
0.0
  0
LINE
  5
3A
100
AcDbEntity
  8
LC-003-002-----0
  6
AUSGEZOGEN
 62
           1
100
AcDbLine
 10
290.048737
 20
418.19455
 30
0.0
 11
304.414612
 21
418.19455
 31
0.0
  0
LINE
  5
3B
100
AcDbEntity
  8
LC-003-002-----0
  6
AUSGEZOGEN
 62
           1
100
AcDbLine
 10
289.426422
 20
390.19455
 30
0.0
 11
304.414612
 21
390.19455
 31
0.0
  0
LINE
  5
3C
100
AcDbEntity
  8
LC-006-012-----0
  6
AUSGEZOGEN
 62
           2
100
AcDbLine
 10
289.426422
 20
390.19455
 30
0.0
 11
289.791565
 21
395.645081
 31
0.0
  0
LINE
  5
3D
100
AcDbEntity
  8
LC-006-012-----0
  6
AUSGEZOGEN
 62
           2
100
AcDbLine
 10
289.791565
 20
395.645081
 30
0.0
 11
289.126923
 21
408.773499
 31
0.0
  0
LINE
  5
3E
100
AcDbEntity
  8
LC-006-012-----0
  6
AUSGEZOGEN
 62
           2
100
AcDbLine
 10
289.126923
 20
408.773499
 30
0.0
 11
290.048737
 21
418.19455
 31
0.0
  0
LINE
  5
3F
100
AcDbEntity
  8
LC-006-012-----0
  6
AUSGEZOGEN
 62
           2
100
AcDbLine
 10
406.460968
 20
390.19455
 30
0.0
 11
406.840485
 21
396.346619
 31
0.0
  0
LINE
  5
40
100
AcDbEntity
  8
LC-006-012-----0
  6
AUSGEZOGEN
 62
           2
100
AcDbLine
 10
406.840485
 20
396.346619
 30
0.0
 11
404.979553
 21
410.076324
 31
0.0
  0
LINE
  5
41
100
AcDbEntity
  8
LC-006-012-----0
  6
AUSGEZOGEN
 62
           2
100
AcDbLine
 10
404.979553
 20
410.076324
 30
0.0
 11
404.979553
 21
418.19455
 31
0.0
  0
LINE
  5
42
100
AcDbEntity
  8
LC-004-006-----0
  6
STRICHLINIE
 62
           2
100
AcDbLine
 10
304.414612
 20
418.19455
 30
0.0
 11
384.414612
 21
418.19455
 31
0.0
  0
LINE
  5
43
100
AcDbEntity
  8
LC-003-002-----0
  6
AUSGEZOGEN
 62
           1
100
AcDbLine
 10
384.414612
 20
418.19455
 30
0.0
 11
404.979553
 21
418.19455
 31
0.0
  0
LINE
  5
44
100
AcDbEntity
  8
LC-004-006-----0
  6
STRICHLINIE
 62
           2
100
AcDbLine
 10
304.414612
 20
390.19455
 30
0.0
 11
384.414612
 21
390.19455
 31
0.0
  0
LINE
  5
45
100
AcDbEntity
  8
LC-003-002-----0
  6
AUSGEZOGEN
 62
           1
100
AcDbLine
 10
384.414612
 20
390.19455
 30
0.0
 11
406.460968
 21
390.19455
 31
0.0
  0
LINE
  5
46
100
AcDbEntity
  8
LC-005-002-RND-0
  6
STRICHPUNKT
 62
           2
100
AcDbLine
 10
428.696253846054
 20
404.19455
 30
0.0
 11
538.716493061176
 21
404.19455
 31
0.0
  0
LINE
  5
47
100
AcDbEntity
  8
LC-005-002-RND-0
  6
STRICHPUNKT
 62
           2
100
AcDbLine
 10
483.561584
 20
457.466827927117
 30
0.0
 11
483.561584
 21
348.450189260197
 31
0.0
  0
LINE
  5
48
100
AcDbEntity
  8
LC-005-002-RND-0
  6
STRICHPUNKT
 62
           2
100
AcDbLine
 10
529.84052558696
 20
430.913709383043
 30
0.0
 11
436.479494451156
 21
377.011692924965
 31
0.0
  0
LINE
  5
49
100
AcDbEntity
  8
LC-005-002-RND-0
  6
STRICHPUNKT
 62
           2
100
AcDbLine
 10
529.795928882296
 20
377.5011385364
 30
0.0
 11
437.930340572999
 21
430.539760676037
 31
0.0
  0
ARC
  5
4A
100
AcDbEntity
  8
LC-003-002-----0
  6
AUSGEZOGEN
 62
           1
100
AcDbCircle
 10
483.561584
 20
404.19455
 30
0.0
 40
14.0
100
AcDbArc
 50
349.912230744731
 51
10.087762859163
  0
ARC
  5
4B
100
AcDbEntity
  8
LC-003-002-----0
  6
AUSGEZOGEN
 62
           1
100
AcDbCircle
 10
483.561584
 20
404.19455
 30
0.0
 40
14.0
100
AcDbArc
 50
21.912251144368
 51
158.087798199731
  0
ARC
  5
4C
100
AcDbEntity
  8
LC-003-002-----0
  6
AUSGEZOGEN
 62
           1
100
AcDbCircle
 10
483.561584
 20
404.19455
 30
0.0
 40
14.0
100
AcDbArc
 50
201.912207409532
 51
338.087743246341
  0
ARC
  5
4D
100
AcDbEntity
  8
LC-003-002-----0
  6
AUSGEZOGEN
 62
           1
100
AcDbCircle
 10
483.561584
 20
404.19455
 30
0.0
 40
14.0
100
AcDbArc
 50
169.912219549838
 51
190.087786846274
  0
ARC
  5
4E
100
AcDbEntity
  8
LC-003-002-----0
  6
AUSGEZOGEN
 62
           1
100
AcDbCircle
 10
497.462897972501
 20
408.180689476073
 30
0.0
 40
1.538461538462
100
AcDbArc
 50
126.389747000001
 51
265.610257
  0
LINE
  5
4F
100
AcDbEntity
  8
LC-005-002-RND-0
  6
STRICHPUNKT
 62
           2
100
AcDbLine
 10
495.076037832351
 20
407.496268400246
 30
0.0
 11
498.911988911826
 21
408.596207746891
 31
0.0
  0
LINE
  5
50
100
AcDbEntity
  8
LC-005-002-RND-0
  6
STRICHPUNKT
 62
           2
100
AcDbLine
 10
472.047131697683
 20
400.892831760567
 30
0.0
 11
468.211156298482
 21
399.79288831088
 31
0.0
  0
ARC
  5
51
100
AcDbEntity
  8
LC-003-002-----0
  6
AUSGEZOGEN
 62
           1
100
AcDbCircle
 10
469.660247237806
 20
400.208406581698
 30
0.0
 40
1.538461538462
100
AcDbArc
 50
306.389741999999
 51
85.610263000001
  0
LINE
  5
52
100
AcDbEntity
  8
LC-005-002-RND-0
  6
STRICHPUNKT
 62
           2
100
AcDbLine
 10
495.076037832351
 20
400.892831599754
 30
0.0
 11
498.911988751013
 21
399.792890723076
 31
0.0
  0
ARC
  5
53
100
AcDbEntity
  8
LC-003-002-----0
  6
AUSGEZOGEN
 62
           1
100
AcDbCircle
 10
497.462897811688
 20
400.208408993893
 30
0.0
 40
1.538461538462
100
AcDbArc
 50
94.389737000001
 51
233.610258
  0
ARC
  5
54
100
AcDbEntity
  8
LC-003-002-----0
  6
AUSGEZOGEN
 62
           1
100
AcDbCircle
 10
469.660247076993
 20
408.180691888269
 30
0.0
 40
1.538461538462
100
AcDbArc
 50
274.389742999999
 51
53.610253000001
  0
LINE
  5
55
100
AcDbEntity
  8
LC-005-002-RND-0
  6
STRICHPUNKT
 62
           2
100
AcDbLine
 10
472.047131697683
 20
407.496268239433
 30
0.0
 11
468.211156137669
 21
408.596210159086
 31
0.0
  0
CIRCLE
  5
56
100
AcDbEntity
  8
LC-003-002-----0
  6
AUSGEZOGEN
 62
           1
100
AcDbCircle
 10
483.561584
 20
404.19455
 30
0.0
 40
50.0
  0
CIRCLE
  5
57
100
AcDbEntity
  8
LC-003-002-----0
  6
AUSGEZOGEN
 62
           1
100
AcDbCircle
 10
483.561584
 20
404.19455
 30
0.0
 40
30.5
  0
CIRCLE
  5
58
100
AcDbEntity
  8
LC-005-002-RND-0
  6
STRICHPUNKT
 62
           2
100
AcDbCircle
 10
483.561584
 20
404.19455
 30
0.0
 40
26.0
  0
CIRCLE
  5
59
100
AcDbEntity
  8
LC-005-002-RND-0
  6
STRICHPUNKT
 62
           2
100
AcDbCircle
 10
483.561584
 20
404.19455
 30
0.0
 40
43.0
  0
CIRCLE
  5
5A
100
AcDbEntity
  8
LC-004-006-----0
  6
STRICHLINIE
 62
           2
100
AcDbCircle
 10
483.561584
 20
404.19455
 30
0.0
 40
23.5
  0
CIRCLE
  5
5B
100
AcDbEntity
  8
LC-003-002-----0
  6
AUSGEZOGEN
 62
           1
100
AcDbCircle
 10
483.561584
 20
404.19455
 30
0.0
 40
49.0
  0
CIRCLE
  5
5C
100
AcDbEntity
  8
LC-003-002-----0
  6
AUSGEZOGEN
 62
           1
100
AcDbCircle
 10
483.561584
 20
447.19455
 30
0.0
 40
3.3
  0
ARC
  5
5D
100
AcDbEntity
  8
LC-006-012-----0
  6
AUSGEZOGEN
 62
           2
100
AcDbCircle
 10
483.561584
 20
430.19455
 30
0.0
 40
3.3
100
AcDbArc
 50
19.516761317834
 51
296.995378378643
  0
CIRCLE
  5
5E
100
AcDbEntity
  8
LC-003-002-----0
  6
AUSGEZOGEN
 62
           1
100
AcDbCircle
 10
483.561584
 20
430.19455
 30
0.0
 40
2.400009155273
  0
CIRCLE
  5
5F
100
AcDbEntity
  8
LC-003-002-----0
  6
AUSGEZOGEN
 62
           1
100
AcDbCircle
 10
446.322491637269
 20
425.69455
 30
0.0
 40
3.3
  0
ARC
  5
60
100
AcDbEntity
  8
LC-006-012-----0
  6
AUSGEZOGEN
 62
           2
100
AcDbCircle
 10
461.044923501605
 20
417.19455
 30
0.0
 40
3.3
100
AcDbArc
 50
79.516761317834
 51
356.995378378643
  0
CIRCLE
  5
61
100
AcDbEntity
  8
LC-003-002-----0
  6
AUSGEZOGEN
 62
           1
100
AcDbCircle
 10
461.044923501605
 20
417.19455
 30
0.0
 40
2.400009155273
  0
CIRCLE
  5
62
100
AcDbEntity
  8
LC-003-002-----0
  6
AUSGEZOGEN
 62
           1
100
AcDbCircle
 10
446.322491637269
 20
382.69455
 30
0.0
 40
3.3
  0
ARC
  5
63
100
AcDbEntity
  8
LC-006-012-----0
  6
AUSGEZOGEN
 62
           2
100
AcDbCircle
 10
461.044923501604
 20
391.19455
 30
0.0
 40
3.3
100
AcDbArc
 50
139.516761317834
 51
56.995378378643
  0
CIRCLE
  5
64
100
AcDbEntity
  8
LC-003-002-----0
  6
AUSGEZOGEN
 62
           1
100
AcDbCircle
 10
461.044923501604
 20
391.19455
 30
0.0
 40
2.400009155273
  0
CIRCLE
  5
65
100
AcDbEntity
  8
LC-003-002-----0
  6
AUSGEZOGEN
 62
           1
100
AcDbCircle
 10
483.561584
 20
361.19455
 30
0.0
 40
3.3
  0
ARC
  5
66
100
AcDbEntity
  8
LC-006-012-----0
  6
AUSGEZOGEN
 62
           2
100
AcDbCircle
 10
483.561584
 20
378.19455
 30
0.0
 40
3.3
100
AcDbArc
 50
199.516761317834
 51
116.995378378643
  0
CIRCLE
  5
67
100
AcDbEntity
  8
LC-003-002-----0
  6
AUSGEZOGEN
 62
           1
100
AcDbCircle
 10
483.561584
 20
378.19455
 30
0.0
 40
2.400009155273
  0
CIRCLE
  5
68
100
AcDbEntity
  8
LC-003-002-----0
  6
AUSGEZOGEN
 62
           1
100
AcDbCircle
 10
520.800676362731
 20
382.69455
 30
0.0
 40
3.3
  0
ARC
  5
69
100
AcDbEntity
  8
LC-006-012-----0
  6
AUSGEZOGEN
 62
           2
100
AcDbCircle
 10
506.078244498395
 20
391.19455
 30
0.0
 40
3.3
100
AcDbArc
 50
259.516761317833
 51
176.995378378643
  0
CIRCLE
  5
6A
100
AcDbEntity
  8
LC-003-002-----0
  6
AUSGEZOGEN
 62
           1
100
AcDbCircle
 10
506.078244498395
 20
391.19455
 30
0.0
 40
2.400009155273
  0
CIRCLE
  5
6B
100
AcDbEntity
  8
LC-003-002-----0
  6
AUSGEZOGEN
 62
           1
100
AcDbCircle
 10
520.800676362731
 20
425.69455
 30
0.0
 40
3.3
  0
ARC
  5
6C
100
AcDbEntity
  8
LC-006-012-----0
  6
AUSGEZOGEN
 62
           2
100
AcDbCircle
 10
506.078244498395
 20
417.19455
 30
0.0
 40
3.3
100
AcDbArc
 50
319.516761317833
 51
236.995378378643
  0
CIRCLE
  5
6D
100
AcDbEntity
  8
LC-003-002-----0
  6
AUSGEZOGEN
 62
           1
100
AcDbCircle
 10
506.078244498395
 20
417.19455
 30
0.0
 40
2.400009155273
  0
LINE
  5
6E
100
AcDbEntity
  8
LC-003-002-----0
  6
AUSGEZOGEN
 62
           1
100
AcDbLine
 10
367.414612
 20
434.69455
 30
0.0
 11
383.914612
 21
434.69455
 31
0.0
  0
LINE
  5
6F
100
AcDbEntity
  8
LC-003-002-----0
  6
AUSGEZOGEN
 62
           1
100
AcDbLine
 10
367.414612
 20
373.69455
 30
0.0
 11
383.914612
 21
373.69455
 31
0.0
  0
LINE
  5
70
100
AcDbEntity
  8
LC-003-002-----0
  6
AUSGEZOGEN
 62
           1
100
AcDbLine
 10
384.414612
 20
374.19455
 30
0.0
 11
384.414612
 21
434.19455
 31
0.0
  0
LINE
  5
71
100
AcDbEntity
  8
LC-003-002-----0
  6
AUSGEZOGEN
 62
           1
100
AcDbLine
 10
383.914612
 20
434.69455
 30
0.0
 11
384.414612
 21
434.19455
 31
0.0
  0
LINE
  5
72
100
AcDbEntity
  8
LC-003-002-----0
  6
AUSGEZOGEN
 62
           1
100
AcDbLine
 10
384.414612
 20
374.19455
 30
0.0
 11
383.914612
 21
373.69455
 31
0.0
  0
LINE
  5
73
100
AcDbEntity
  8
LC-003-002-----0
  6
AUSGEZOGEN
 62
           1
100
AcDbLine
 10
358.914612
 20
354.19455
 30
0.0
 11
358.914612
 21
454.19455
 31
0.0
  0
LINE
  5
74
100
AcDbEntity
  8
LC-004-006-----0
  6
STRICHLINIE
 62
           2
100
AcDbLine
 10
350.414612
 20
443.89455
 30
0.0
 11
367.414612
 21
443.89455
 31
0.0
  0
LINE
  5
75
100
AcDbEntity
  8
LC-004-006-----0
  6
STRICHLINIE
 62
           2
100
AcDbLine
 10
350.414612
 20
450.49455
 30
0.0
 11
367.414612
 21
450.49455
 31
0.0
  0
LINE
  5
76
100
AcDbEntity
  8
LC-005-002-RND-0
  6
STRICHPUNKT
 62
           2
100
AcDbLine
 10
344.781027178901
 20
447.19455
 30
0.0
 11
373.126882893242
 21
447.19455
 31
0.0
  0
LINE
  5
77
100
AcDbEntity
  8
LC-004-006-----0
  6
STRICHLINIE
 62
           2
100
AcDbLine
 10
350.414612
 20
364.49455
 30
0.0
 11
367.414612
 21
364.49455
 31
0.0
  0
LINE
  5
78
100
AcDbEntity
  8
LC-004-006-----0
  6
STRICHLINIE
 62
           2
100
AcDbLine
 10
350.414612
 20
357.89455
 30
0.0
 11
367.414612
 21
357.89455
 31
0.0
  0
LINE
  5
79
100
AcDbEntity
  8
LC-005-002-RND-0
  6
STRICHPUNKT
 62
           2
100
AcDbLine
 10
344.781027178901
 20
361.19455
 30
0.0
 11
373.126882893242
 21
361.19455
 31
0.0
  0
LINE
  5
7A
100
AcDbEntity
  8
LC-003-002-----0
  6
AUSGEZOGEN
 62
           1
100
AcDbLine
 10
289.190097019204
 20
409.419145146395
 30
0.0
 11
304.414612
 21
409.419145146395
 31
0.0
  0
LINE
  5
7B
100
AcDbEntity
  8
LC-004-006-----0
  6
STRICHLINIE
 62
           2
100
AcDbLine
 10
304.414612
 20
409.419145146395
 30
0.0
 11
384.414612
 21
409.419145146395
 31
0.0
  0
LINE
  5
7C
100
AcDbEntity
  8
LC-003-002-----0
  6
AUSGEZOGEN
 62
           1
100
AcDbLine
 10
384.414612
 20
409.419145146395
 30
0.0
 11
405.068627394417
 21
409.419145146395
 31
0.0
  0
LINE
  5
7D
100
AcDbEntity
  8
LC-003-002-----0
  6
AUSGEZOGEN
 62
           1
100
AcDbLine
 10
289.234592508301
 20
406.64674458058
 30
0.0
 11
304.414612
 21
406.64674458058
 31
0.0
  0
LINE
  5
7E
100
AcDbEntity
  8
LC-004-006-----0
  6
STRICHLINIE
 62
           2
100
AcDbLine
 10
304.414612
 20
406.64674458058
 30
0.0
 11
384.414612
 21
406.64674458058
 31
0.0
  0
LINE
  5
7F
100
AcDbEntity
  8
LC-003-002-----0
  6
AUSGEZOGEN
 62
           1
100
AcDbLine
 10
384.414612
 20
406.64674458058
 30
0.0
 11
405.444400138969
 21
406.64674458058
 31
0.0
  0
LINE
  5
80
100
AcDbEntity
  8
LC-003-002-----0
  6
AUSGEZOGEN
 62
           1
100
AcDbLine
 10
289.482883204373
 20
401.742353880716
 30
0.0
 11
304.414612
 21
401.742353880716
 31
0.0
  0
LINE
  5
81
100
AcDbEntity
  8
LC-004-006-----0
  6
STRICHLINIE
 62
           2
100
AcDbLine
 10
304.414612
 20
401.742353880716
 30
0.0
 11
384.414612
 21
401.742353880716
 31
0.0
  0
LINE
  5
82
100
AcDbEntity
  8
LC-003-002-----0
  6
AUSGEZOGEN
 62
           1
100
AcDbLine
 10
384.414612
 20
401.742353880716
 30
0.0
 11
406.10914403506
 21
401.742353880716
 31
0.0
  0
LINE
  5
83
100
AcDbEntity
  8
LC-003-002-----0
  6
AUSGEZOGEN
 62
           1
100
AcDbLine
 10
289.62323931425
 20
398.96995358202
 30
0.0
 11
304.414612
 21
398.96995358202
 31
0.0
  0
LINE
  5
84
100
AcDbEntity
  8
LC-004-006-----0
  6
STRICHLINIE
 62
           2
100
AcDbLine
 10
304.414612
 20
398.96995358202
 30
0.0
 11
384.414612
 21
398.96995358202
 31
0.0
  0
LINE
  5
85
100
AcDbEntity
  8
LC-003-002-----0
  6
AUSGEZOGEN
 62
           1
100
AcDbLine
 10
384.414612
 20
398.96995358202
 30
0.0
 11
406.484916743407
 21
398.96995358202
 31
0.0
  0
LINE
  5
86
100
AcDbEntity
  8
LC-005-002-RND-0
  6
STRICHPUNKT
 62
           2
100
AcDbLine
 10
361.968144063025
 20
430.19455
 30
0.0
 11
388.579001771919
 21
430.19455
 31
0.0
  0
LINE
  5
87
100
AcDbEntity
  8
LC-006-012-----0
  6
AUSGEZOGEN
 62
           2
100
AcDbLine
 10
374.414612
 20
433.49455
 30
0.0
 11
384.414612
 21
433.49455
 31
0.0
  0
LINE
  5
88
100
AcDbEntity
  8
LC-006-012-----0
  6
AUSGEZOGEN
 62
           2
100
AcDbLine
 10
374.414612
 20
426.89455
 30
0.0
 11
384.414612
 21
426.89455
 31
0.0
  0
LINE
  5
89
100
AcDbEntity
  8
LC-003-002-----0
  6
AUSGEZOGEN
 62
           1
100
AcDbLine
 10
369.414612
 20
432.594559155273
 30
0.0
 11
384.414612
 21
432.594559155273
 31
0.0
  0
LINE
  5
8A
100
AcDbEntity
  8
LC-003-002-----0
  6
AUSGEZOGEN
 62
           1
100
AcDbLine
 10
369.414612
 20
427.794540844727
 30
0.0
 11
384.414612
 21
427.794540844727
 31
0.0
  0
LINE
  5
8B
100
AcDbEntity
  8
LC-006-012-----0
  6
AUSGEZOGEN
 62
           2
100
AcDbLine
 10
374.414612
 20
426.89455
 30
0.0
 11
374.414612
 21
433.49455
 31
0.0
  0
LINE
  5
8C
100
AcDbEntity
  8
LC-003-002-----0
  6
AUSGEZOGEN
 62
           1
100
AcDbLine
 10
369.414612
 20
427.794540844727
 30
0.0
 11
369.414612
 21
432.594559155273
 31
0.0
  0
LINE
  5
8D
100
AcDbEntity
  8
LC-003-002-----0
  6
AUSGEZOGEN
 62
           1
100
AcDbLine
 10
369.414612
 20
427.794540844727
 30
0.0
 11
368.028966068145
 21
430.19455
 31
0.0
  0
LINE
  5
8E
100
AcDbEntity
  8
LC-003-002-----0
  6
AUSGEZOGEN
 62
           1
100
AcDbLine
 10
369.414612
 20
432.594559155273
 30
0.0
 11
368.028966068145
 21
430.19455
 31
0.0
  0
LINE
  5
8F
100
AcDbEntity
  8
LC-006-012-----0
  6
AUSGEZOGEN
 62
           2
100
AcDbLine
 10
368.551392395827
 20
434.69455
 30
0.0
 11
368.204547700607
 21
433.010820230909
 31
0.0
  0
LINE
  5
90
100
AcDbEntity
  8
LC-006-012-----0
  6
AUSGEZOGEN
 62
           2
100
AcDbLine
 10
368.204547700607
 20
433.010820230909
 30
0.0
 11
367.742088106981
 21
430.923322470171
 31
0.0
  0
LINE
  5
91
100
AcDbEntity
  8
LC-006-012-----0
  6
AUSGEZOGEN
 62
           2
100
AcDbLine
 10
367.742088106981
 20
430.923322470171
 30
0.0
 11
367.857703005387
 21
427.850061877973
 31
0.0
  0
LINE
  5
92
100
AcDbEntity
  8
LC-006-012-----0
  6
AUSGEZOGEN
 62
           2
100
AcDbLine
 10
367.857703005387
 20
427.850061877973
 30
0.0
 11
368.667007294234
 21
425.414647823778
 31
0.0
  0
LINE
  5
93
100
AcDbEntity
  8
LC-006-012-----0
  6
AUSGEZOGEN
 62
           2
100
AcDbLine
 10
368.667007294234
 20
425.414647823778
 30
0.0
 11
370.574653117944
 21
424.196940796681
 31
0.0
  0
LINE
  5
94
100
AcDbEntity
  8
LC-006-012-----0
  6
AUSGEZOGEN
 62
           2
100
AcDbLine
 10
370.574653117944
 20
424.196940796681
 30
0.0
 11
377.28031722553
 21
422.747289573946
 31
0.0
  0
LINE
  5
95
100
AcDbEntity
  8
LC-006-012-----0
  6
AUSGEZOGEN
 62
           2
100
AcDbLine
 10
377.28031722553
 20
422.747289573946
 30
0.0
 11
382.13614295861
 21
423.559094258678
 31
0.0
  0
LINE
  5
96
100
AcDbEntity
  8
LC-006-012-----0
  6
AUSGEZOGEN
 62
           2
100
AcDbLine
 10
382.13614295861
 20
423.559094258678
 30
0.0
 11
384.414612
 21
423.269164014131
 31
0.0
  0
INSERT
  5
97
100
AcDbEntity
  8
LC-006-012-----0
  6
AUSGEZOGEN
 62
           2
100
AcDbBlockReference
  2
*X1
 10
0.0
 20
0.0
 30
0.0
  0
LINE
  5
98
100
AcDbEntity
  8
LC-005-002-RND-0
  6
STRICHPUNKT
 62
           2
100
AcDbLine
 10
361.968144063025
 20
378.19455
 30
0.0
 11
388.579001771919
 21
378.19455
 31
0.0
  0
LINE
  5
99
100
AcDbEntity
  8
LC-004-006-----0
  6
STRICHLINIE
 62
           2
100
AcDbLine
 10
374.414612
 20
374.89455
 30
0.0
 11
384.414612
 21
374.89455
 31
0.0
  0
LINE
  5
9A
100
AcDbEntity
  8
LC-004-006-----0
  6
STRICHLINIE
 62
           2
100
AcDbLine
 10
374.414612
 20
381.49455
 30
0.0
 11
384.414612
 21
381.49455
 31
0.0
  0
LINE
  5
9B
100
AcDbEntity
  8
LC-004-006-----0
  6
STRICHLINIE
 62
           2
100
AcDbLine
 10
369.414612
 20
375.794540844727
 30
0.0
 11
384.414612
 21
375.794540844727
 31
0.0
  0
LINE
  5
9C
100
AcDbEntity
  8
LC-004-006-----0
  6
STRICHLINIE
 62
           2
100
AcDbLine
 10
369.414612
 20
380.594559155273
 30
0.0
 11
384.414612
 21
380.594559155273
 31
0.0
  0
LINE
  5
9D
100
AcDbEntity
  8
LC-004-006-----0
  6
STRICHLINIE
 62
           2
100
AcDbLine
 10
374.414612
 20
381.49455
 30
0.0
 11
374.414612
 21
374.89455
 31
0.0
  0
LINE
  5
9E
100
AcDbEntity
  8
LC-004-006-----0
  6
STRICHLINIE
 62
           2
100
AcDbLine
 10
369.414612
 20
380.594559155273
 30
0.0
 11
369.414612
 21
375.794540844727
 31
0.0
  0
LINE
  5
9F
100
AcDbEntity
  8
LC-004-006-----0
  6
STRICHLINIE
 62
           2
100
AcDbLine
 10
369.414612
 20
380.594559155273
 30
0.0
 11
368.028966068145
 21
378.19455
 31
0.0
  0
LINE
  5
A0
100
AcDbEntity
  8
LC-004-006-----0
  6
STRICHLINIE
 62
           2
100
AcDbLine
 10
369.414612
 20
375.794540844727
 30
0.0
 11
368.028966068145
 21
378.19455
 31
0.0
  0
LINE
  5
A1
100
AcDbEntity
  8
LC-003-002-----0
  6
AUSGEZOGEN
 62
           1
100
AcDbLine
 10
383.914612
 20
373.69455
 30
0.0
 11
383.914612
 21
423.332787929857
 31
0.0
  0
ENDSEC
  0
SECTION
  2
OBJECTS
  0
DICTIONARY
  5
19
100
AcDbDictionary
  3
ACAD_GROUP
350
1A
  3
ACAD_MLINESTYLE
350
1B
  0
DICTIONARY
  5
1A
102
{ACAD_REACTORS
330
19
102
}
100
AcDbDictionary
  0
DICTIONARY
  5
1B
102
{ACAD_REACTORS
330
19
102
}
100
AcDbDictionary
  3
STANDARD
350
1C
  0
MLINESTYLE
  5
1C
102
{ACAD_REACTORS
330
1B
102
}
100
AcDbMlineStyle
  2
STANDARD
 70
           0
  3

 62
           0
 51
90.0
 52
90.0
 71
           2
 49
0.5
 62
         256
  6
BYLAYER
 49
-0.5
 62
         256
  6
BYLAYER
  0
ENDSEC
  0
EOF
