  0
SECTION
  2
HEADER
  9
$ACADVER
  1
AC1014
  9
$ACADMAINTVER
 70
           0
  9
$DWGCODEPAGE
  3
DOS850
  9
$INSBASE
 10
0.0
 20
0.0
 30
0.0
  9
$EXTMIN
 10
-13.42851151113
 20
154.317225956811
 30
0.0
  9
$EXTMAX
 10
76.51731285559
 20
191.157520908777
 30
0.0
  9
$LIMMIN
 10
-13.42851151113
 20
154.317225956811
  9
$LIMMAX
 10
76.51731285559
 20
191.157520908777
  9
$ORTHOMODE
 70
           0
  9
$REGENMODE
 70
           1
  9
$FILLMODE
 70
           1
  9
$QTEXTMODE
 70
           0
  9
$MIRRTEXT
 70
           1
  9
$DRAGMODE
 70
           2
  9
$LTSCALE
 40
5.0
  9
$OSMODE
 70
           0
  9
$ATTMODE
 70
           1
  9
$TEXTSIZE
 40
0.2
  9
$TRACEWID
 40
0.05
  9
$TEXTSTYLE
  7
TXT
  9
$CLAYER
  8
0
  9
$CELTYPE
  6
CONTINUOUS
  9
$CECOLOR
 62
         256
  9
$CELTSCALE
 40
1.0
  9
$DELOBJ
 70
           1
  9
$DISPSILH
 70
           0
  9
$DIMSCALE
 40
1.0
  9
$DIMASZ
 40
3.5
  9
$DIMEXO
 40
0.0625
  9
$DIMDLI
 40
0.38
  9
$DIMRND
 40
0.0
  9
$DIMDLE
 40
0.0
  9
$DIMEXE
 40
0.18
  9
$DIMTP
 40
0.0
  9
$DIMTM
 40
0.0
  9
$DIMTXT
 40
3.5
  9
$DIMCEN
 40
0.09
  9
$DIMTSZ
 40
0.0
  9
$DIMTOL
 70
           0
  9
$DIMLIM
 70
           0
  9
$DIMTIH
 70
           1
  9
$DIMTOH
 70
           1
  9
$DIMSE1
 70
           0
  9
$DIMSE2
 70
           0
  9
$DIMTAD
 70
           0
  9
$DIMZIN
 70
           0
  9
$DIMBLK
  1

  9
$DIMASO
 70
           1
  9
$DIMSHO
 70
           1
  9
$DIMPOST
  1

  9
$DIMAPOST
  1

  9
$DIMALT
 70
           0
  9
$DIMALTD
 70
           2
  9
$DIMALTF
 40
25.4
  9
$DIMLFAC
 40
1.0
  9
$DIMTOFL
 70
           0
  9
$DIMTVP
 40
0.0
  9
$DIMTIX
 70
           0
  9
$DIMSOXD
 70
           0
  9
$DIMSAH
 70
           0
  9
$DIMBLK1
  1

  9
$DIMBLK2
  1

  9
$DIMSTYLE
  2
STANDARD
  9
$DIMCLRD
 70
           0
  9
$DIMCLRE
 70
           0
  9
$DIMCLRT
 70
           0
  9
$DIMTFAC
 40
1.0
  9
$DIMGAP
 40
0.09
  9
$DIMJUST
 70
           0
  9
$DIMSD1
 70
           0
  9
$DIMSD2
 70
           0
  9
$DIMTOLJ
 70
           1
  9
$DIMTZIN
 70
           0
  9
$DIMALTZ
 70
           0
  9
$DIMALTTZ
 70
           0
  9
$DIMFIT
 70
           3
  9
$DIMUPT
 70
           0
  9
$DIMUNIT
 70
           2
  9
$DIMDEC
 70
           4
  9
$DIMTDEC
 70
           4
  9
$DIMALTU
 70
           2
  9
$DIMALTTD
 70
           2
  9
$DIMTXSTY
  7
TXT
  9
$DIMAUNIT
 70
           0
  9
$LUNITS
 70
           2
  9
$LUPREC
 70
           2
  9
$SKETCHINC
 40
0.1
  9
$FILLETRAD
 40
0.0
  9
$AUNITS
 70
           0
  9
$AUPREC
 70
           2
  9
$MENU
  1
acad
  9
$ELEVATION
 40
0.0
  9
$PELEVATION
 40
0.0
  9
$THICKNESS
 40
0.0
  9
$LIMCHECK
 70
           0
  9
$BLIPMODE
 70
           1
  9
$CHAMFERA
 40
0.0
  9
$CHAMFERB
 40
0.0
  9
$CHAMFERC
 40
0.0
  9
$CHAMFERD
 40
0.0
  9
$SKPOLY
 70
           0
  9
$TDCREATE
 40
0.000000000
  9
$TDUPDATE
 40
0.000000000
  9
$TDINDWG
 40
0.0000000000
  9
$TDUSRTIMER
 40
0.0000000000
  9
$USRTIMER
 70
           1
  9
$ANGBASE
 50
0.0
  9
$ANGDIR
 70
           0
  9
$PDMODE
 70
           2
  9
$PDSIZE
 40
0.5
  9
$PLINEWID
 40
0.0
  9
$COORDS
 70
           0
  9
$SPLFRAME
 70
           0
  9
$SPLINETYPE
 70
           6
  9
$SPLINESEGS
 70
           8
  9
$ATTDIA
 70
           0
  9
$ATTREQ
 70
           1
  9
$HANDLING
 70
           1
  9
$HANDSEED
  5
91
  9
$SURFTAB1
 70
           6
  9
$SURFTAB2
 70
           6
  9
$SURFTYPE
 70
           6
  9
$SURFU
 70
           6
  9
$SURFV
 70
           6
  9
$UCSNAME
  2

  9
$UCSORG
 10
0.0
 20
0.0
 30
0.0
  9
$UCSXDIR
 10
1.0
 20
0.0
 30
0.0
  9
$UCSYDIR
 10
0.0
 20
1.0
 30
0.0
  9
$PUCSNAME
  2

  9
$PUCSORG
 10
0.0
 20
0.0
 30
0.0
  9
$PUCSXDIR
 10
1.0
 20
0.0
 30
0.0
  9
$PUCSYDIR
 10
0.0
 20
1.0
 30
0.0
  9
$USERI1
 70
           0
  9
$USERI2
 70
           0
  9
$USERI3
 70
           0
  9
$USERI4
 70
           0
  9
$USERI5
 70
           0
  9
$USERR1
 40
0.0
  9
$USERR2
 40
0.0
  9
$USERR3
 40
0.0
  9
$USERR4
 40
0.0
  9
$USERR5
 40
0.0
  9
$WORLDVIEW
 70
           1
  9
$SHADEDGE
 70
           3
  9
$SHADEDIF
 70
          70
  9
$TILEMODE
 70
           1
  9
$MAXACTVP
 70
          16
  9
$PINSBASE
 10
0.0
 20
0.0
 30
0.0
  9
$PLIMCHECK
 70
           0
  9
$PEXTMIN
 10
1.000000000000E+20
 20
1.000000000000E+20
 30
1.000000000000E+20
  9
$PEXTMAX
 10
-1.000000000000E+20
 20
-1.000000000000E+20
 30
-1.000000000000E+20
  9
$PLIMMIN
 10
0.0
 20
0.0
  9
$PLIMMAX
 10
12.0
 20
9.0
  9
$UNITMODE
 70
           0
  9
$VISRETAIN
 70
           0
  9
$PLINEGEN
 70
           1
  9
$PSLTSCALE
 70
           0
  9
$TREEDEPTH
 70
        3020
  9
$PICKSTYLE
 70
           1
  9
$CMLSTYLE
  2
STANDARD
  9
$CMLJUST
 70
           0
  9
$CMLSCALE
 40
1.0
  9
$PROXYGRAPHICS
 70
           0
  9
$MEASUREMENT
 70
           0
  0
ENDSEC
  0
SECTION
  2
CLASSES
  0
CLASS
  1
LWPOLYLINE
  2
AcDbPolyline
  3
"AutoCAD"
 90
        0
280
           0
281
           1
  0
CLASS
  1
IMAGE
  2
AcDbRasterImage
  3
ISM
 90
      127
280
           0
281
           1
  0
CLASS
  1
OLE2FRAME
  2
AcDbOle2Frame
  3
""
 90
        0
280
           0
281
           1
  0
CLASS
  1
HATCH
  2
AcDbHatch
  3
"ACAD_SEDONA"
 90
        0
280
           0
281
           1
  0
CLASS
  1
DICTIONARYVAR
  2
AcDbDictionaryVar
  3
"AutoCAD"
 90
        0
280
           0
281
           0
  0
CLASS
  1
RASTERVARIABLES
  2
AcDbRasterVariables
  3
ISM
 90
        0
280
           0
281
           0
  0
CLASS
  1
IMAGEDEF
  2
AcDbRasterImageDef
  3
ISM
 90
        0
280
           0
281
           0
  0
CLASS
  1
IMAGEDEF_REACTOR
  2
AcDbRasterImageDefReactor
  3
ISM
 90
        1
280
           0
281
           0
  0
CLASS
  1
IDBUFFER
  2
AcDbIdBuffer
  3
"Acad"
 90
        0
280
           0
281
           0
  0
CLASS
  1
SPATIAL_FILTER
  2
AcDbSpatialFilter
  3
"Acad"
 90
        0
280
           0
281
           0
  0
CLASS
  1
XRECORD
  2
AcDbXrecord
  3
"<Built In>"
 90
        0
280
           0
281
           0
  0
CLASS
  1
SORTENTSTABLE
  2
AcDbSortentsTable
  3
"AutoCAD"
 90
        0
280
           0
281
           0
  0
CLASS
  1
LAYER_INDEX
  2
AcDbLayerIndex
  3
"Acad"
 90
        0
280
           0
281
           0
  0
CLASS
  1
SPATIAL_INDEX
  2
AcDbSpatialIndex
  3
"Acad"
 90
        0
280
           0
281
           0
  0
CLASS
  1
OBJECT_PTR
  2
CAseDLPNTableRecord
  3
"ASE-LPNTableRecord"
 90
        1
280
           0
281
           0
  0
CLASS
  1
LAYOUT
  2
AcDbLayout
  3
"AutoCAD 2000"
 90
        1
280
           0
281
           0
  0
CLASS
  1
PLOTSETTINGS
  2
AcDbPlotSettings
  3
"AutoCAD 2000"
 90
        1
280
           0
281
           0
  0
CLASS
  1
ACDBDICTIONARYWDFLT
  2
AcDbDictionaryWithDefault
  3
"AutoCAD 2000"
 90
        1
280
           0
281
           0
  0
CLASS
  1
ACDBPLACEHOLDER
  2
AcDbPlaceHolder
  3
"AutoCAD 2000"
 90
        1
280
           0
281
           0
  0
CLASS
  1
VBA_PROJECT
  2
AcDbVbaProject
  3
"acadvba"
 90
        1
280
           0
281
           0
  0
CLASS
  1
WIPEOUT
  2
AcDbWipeout
  3
WipeOut|AutoCAD Express Tool|expresstools@autodesk.com
 90
      127
280
           0
281
           1
  0
CLASS
  1
WIPEOUTVARIABLES
  2
AcDbWipeoutVariables
  3
WipeOut|AutoCAD Express Tool|expresstools@autodesk.com
 90
        0
280
           0
281
           0
  0
CLASS
  1
RTEXT
  2
RText
  3
RText|AutoCAD Express Tool|expresstools@autodesk.com
 90
        0
280
           0
281
           1
  0
CLASS
  1
ARCALIGNEDTEXT
  2
AcDbArcAlignedText
  3
ATEXT|AutoCAD Express Tool|expresstools@autodesk.com
 90
        0
280
           0
281
           1
  0
ENDSEC
  0
SECTION
  2
TABLES
  0
TABLE
  2
VPORT
  5
7
100
AcDbSymbolTable
 70
           1
  0
VPORT
  5
15
100
AcDbSymbolTableRecord
100
AcDbViewportTableRecord
  2
*ACTIVE
 70
           0
 10
0.0
 20
0.0
 11
1.0
 21
1.0
 12
6.591288
 22
4.579184
 13
0.0
 23
0.0
 14
1.0
 24
1.0
 15
0.0
 25
0.0
 16
0.0
 26
0.0
 36
1.0
 17
0.0
 27
0.0
 37
0.0
 40
9.158369
 41
0.688564
 42
50.0
 43
0.0
 44
0.0
 50
0.0
 51
0.0
 71
           0
 72
         100
 73
           1
 74
           1
 75
           0
 76
           0
 77
           0
 78
           0
  0
ENDTAB
  0
TABLE
  2
LTYPE
  5
4
100
AcDbSymbolTable
 70
           6
  0
LTYPE
  5
11
100
AcDbSymbolTableRecord
100
AcDbLinetypeTableRecord
  2
BYBLOCK
 70
          64
  3

 72
          65
 73
           0
 40
0.0
  0
LTYPE
  5
12
100
AcDbSymbolTableRecord
100
AcDbLinetypeTableRecord
  2
BYLAYER
 70
          64
  3

 72
          65
 73
           0
 40
0.0
  0
LTYPE
  5
13
100
AcDbSymbolTableRecord
100
AcDbLinetypeTableRecord
  2
CONTINUOUS
 70
          64
  3
Solid line
 72
          65
 73
           0
 40
0.0
  0
LTYPE
  5
1D
100
AcDbSymbolTableRecord
100
AcDbLinetypeTableRecord
  2
AUSGEZOGEN
 70
           0
  3

 72
          65
 73
           2
 40
0.5
 49
0.25
 74
           0
 49
-0.25
 74
           0
  0
LTYPE
  5
1E
100
AcDbSymbolTableRecord
100
AcDbLinetypeTableRecord
  2
STRICHLINIE
 70
           0
  3

 72
          65
 73
           2
 40
0.5
 49
0.25
 74
           0
 49
-0.25
 74
           0
  0
LTYPE
  5
1F
100
AcDbSymbolTableRecord
100
AcDbLinetypeTableRecord
  2
STRICHPUNKT
 70
           0
  3

 72
          65
 73
           4
 40
1.0
 49
0.5
 74
           0
 49
-0.25
 74
           0
 49
0.0
 74
           0
 49
-0.25
 74
           0
  0
ENDTAB
  0
TABLE
  2
LAYER
  5
2
100
AcDbSymbolTable
 70
           5
  0
LAYER
  5
14
100
AcDbSymbolTableRecord
100
AcDbLayerTableRecord
  2
0
 70
           0
 62
           7
  6
CONTINUOUS
  0
LAYER
  5
20
100
AcDbSymbolTableRecord
100
AcDbLayerTableRecord
  2
LC-003-002-----0
 70
           0
 62
           7
  6
CONTINUOUS
  0
LAYER
  5
21
100
AcDbSymbolTableRecord
100
AcDbLayerTableRecord
  2
LC-005-002-RND-0
 70
           0
 62
           7
  6
CONTINUOUS
  0
LAYER
  5
22
100
AcDbSymbolTableRecord
100
AcDbLayerTableRecord
  2
LC-004-006-----0
 70
           0
 62
           7
  6
CONTINUOUS
  0
LAYER
  5
23
100
AcDbSymbolTableRecord
100
AcDbLayerTableRecord
  2
LC-006-012-----0
 70
           0
 62
           7
  6
CONTINUOUS
  0
ENDTAB
  0
TABLE
  2
STYLE
  5
3
100
AcDbSymbolTable
 70
           1
  0
STYLE
  5
17
100
AcDbSymbolTableRecord
100
AcDbTextStyleTableRecord
  2
TXT
 70
           0
 40
3.5
 41
1.0
 50
0.0
 71
           0
 42
3.5
  3
TXT
  4

  0
ENDTAB
  0
TABLE
  2
VIEW
  5
5
100
AcDbSymbolTable
 70
           0
  0
ENDTAB
  0
TABLE
  2
UCS
  5
6
100
AcDbSymbolTable
 70
           0
  0
ENDTAB
  0
TABLE
  2
APPID
  5
8
100
AcDbSymbolTable
 70
           2
  0
APPID
  5
16
100
AcDbSymbolTableRecord
100
AcDbRegAppTableRecord
  2
ACAD
 70
           0
  0
APPID
  5
24
100
AcDbSymbolTableRecord
100
AcDbRegAppTableRecord
  2
MegaCADPntStyle
 70
           0
  0
ENDTAB
  0
TABLE
  2
DIMSTYLE
  5
9
100
AcDbSymbolTable
 70
           1
  0
DIMSTYLE
105
18
100
AcDbSymbolTableRecord
100
AcDbDimStyleTableRecord
  2
STANDARD
 70
           0
  3

  4

  5

  6

  7

 40
1.0
 41
0.18
 42
0.0625
 43
0.38
 44
0.18
 45
0.0
 46
0.0
 47
0.0
 48
0.0
 71
           0
 72
           0
 73
           1
 74
           1
 75
           0
 76
           0
 77
           0
 78
           0
140
0.18
141
0.09
142
0.0
143
25.4
144
1.0
145
0.0
146
1.0
147
0.09
170
           0
171
           2
172
           0
173
           0
174
           0
175
           0
176
           0
177
           0
178
           0
270
           2
271
           4
272
           4
273
           2
274
           2
275
           0
280
           0
281
           0
282
           0
283
           1
284
           0
285
           0
286
           0
287
           0
288
           0
340
17
  0
ENDTAB
  0
TABLE
  2
BLOCK_RECORD
  5
1
100
AcDbSymbolTable
 70
           3
  0
BLOCK_RECORD
  5
A
100
AcDbSymbolTableRecord
100
AcDbBlockTableRecord
  2
*MODEL_SPACE
  0
BLOCK_RECORD
  5
B
100
AcDbSymbolTableRecord
100
AcDbBlockTableRecord
  2
*PAPER_SPACE
  0
BLOCK_RECORD
  5
25
102
{ACAD_XDICTIONARY
360
5C
102
}
100
AcDbSymbolTableRecord
100
AcDbBlockTableRecord
  2
ELIPPSE
  0
BLOCK_RECORD
  5
26
102
{ACAD_XDICTIONARY
360
5C
102
}
100
AcDbSymbolTableRecord
100
AcDbBlockTableRecord
  2
KM06_1
  0
BLOCK_RECORD
  5
27
102
{ACAD_XDICTIONARY
360
5C
102
}
100
AcDbSymbolTableRecord
100
AcDbBlockTableRecord
  2
KM06_2
  0
ENDTAB
  0
ENDSEC
  0
SECTION
  2
BLOCKS
  0
BLOCK
  5
D
100
AcDbEntity
  8
0
100
AcDbBlockBegin
  2
*MODEL_SPACE
 70
           0
 10
0.0
 20
0.0
 30
0.0
  3
*MODEL_SPACE
  1

  0
ENDBLK
  5
E
100
AcDbEntity
  8
0
100
AcDbBlockEnd
  0
BLOCK
  5
F
100
AcDbEntity
 67
           1
  8
0
100
AcDbBlockBegin
  2
*PAPER_SPACE
 70
           0
 10
0.0
 20
0.0
 30
0.0
  3
*PAPER_SPACE
  1

  0
ENDBLK
  5
10
100
AcDbEntity
 67
           1
  8
0
100
AcDbBlockEnd
  0
BLOCK
  5
80
100
AcDbEntity
  8
0
100
AcDbBlockBegin
  2
ELIPPSE
 70
          64
 10
0.0
 20
0.0
 30
0.0
  3
ELIPPSE
  1

  0
CIRCLE
  5
81
100
AcDbEntity
  8
0
  6
BYBLOCK
 62
           0
100
AcDbCircle
 10
0.0
 20
0.0
 30
0.0
 40
1.0
  0
ENDBLK
  5
82
100
AcDbEntity
  8
0
  6
BYBLOCK
 62
           0
100
AcDbBlockEnd
  0
BLOCK
  5
83
100
AcDbEntity
  8
0
100
AcDbBlockBegin
  2
KM06_1
 70
          64
 10
0.0
 20
0.0
 30
0.0
  3
KM06_1
  1

  0
LINE
  5
84
100
AcDbEntity
  8
0
  6
BYBLOCK
 62
           0
100
AcDbLine
 10
-5.5
 20
-6.800003051758
 30
0.0
 11
5.5
 21
-6.800003051758
 31
0.0
  0
LINE
  5
85
100
AcDbEntity
  8
0
  6
BYBLOCK
 62
           0
100
AcDbLine
 10
5.5
 20
-6.800003051758
 30
0.0
 11
5.5
 21
0.0
 31
0.0
  0
LINE
  5
86
100
AcDbEntity
  8
0
  6
BYBLOCK
 62
           0
100
AcDbLine
 10
-5.5
 20
-6.800003051758
 30
0.0
 11
-5.5
 21
0.0
 31
0.0
  0
LINE
  5
87
100
AcDbEntity
  8
0
  6
BYBLOCK
 62
           0
100
AcDbLine
 10
3.300003051758
 20
-10.0
 30
0.0
 11
3.300003051758
 21
-6.800003051758
 31
0.0
  0
LINE
  5
88
100
AcDbEntity
  8
0
  6
BYBLOCK
 62
           0
100
AcDbLine
 10
-3.300003051758
 20
-10.0
 30
0.0
 11
-3.300003051758
 21
-6.800003051758
 31
0.0
  0
ENDBLK
  5
89
100
AcDbEntity
  8
0
  6
BYBLOCK
 62
           0
100
AcDbBlockEnd
  0
BLOCK
  5
8A
100
AcDbEntity
  8
0
100
AcDbBlockBegin
  2
KM06_2
 70
          64
 10
0.0
 20
0.0
 30
0.0
  3
KM06_2
  1

  0
LINE
  5
8B
100
AcDbEntity
  8
0
  6
BYBLOCK
 62
           0
100
AcDbLine
 10
-5.5
 20
-6.800003051758
 30
0.0
 11
5.5
 21
-6.800003051758
 31
0.0
  0
LINE
  5
8C
100
AcDbEntity
  8
0
  6
BYBLOCK
 62
           0
100
AcDbLine
 10
5.5
 20
-6.800003051758
 30
0.0
 11
5.5
 21
0.0
 31
0.0
  0
LINE
  5
8D
100
AcDbEntity
  8
0
  6
BYBLOCK
 62
           0
100
AcDbLine
 10
-5.5
 20
-6.800003051758
 30
0.0
 11
-5.5
 21
0.0
 31
0.0
  0
LINE
  5
8E
100
AcDbEntity
  8
0
  6
BYBLOCK
 62
           0
100
AcDbLine
 10
3.300003051758
 20
-10.0
 30
0.0
 11
3.300003051758
 21
-6.800003051758
 31
0.0
  0
LINE
  5
8F
100
AcDbEntity
  8
0
  6
BYBLOCK
 62
           0
100
AcDbLine
 10
-3.300003051758
 20
-10.0
 30
0.0
 11
-3.300003051758
 21
-6.800003051758
 31
0.0
  0
ENDBLK
  5
90
100
AcDbEntity
  8
0
  6
BYBLOCK
 62
           0
100
AcDbBlockEnd
  0
ENDSEC
  0
SECTION
  2
ENTITIES
  0
INSERT
  5
28
100
AcDbEntity
  8
LC-004-006-----0
  6
STRICHLINIE
 62
           2
100
AcDbBlockReference
  2
KM06_1
 10
19.349911
 20
184.947006
 30
0.0
 41
0.5
 42
0.5
 43
0.5
 50
269.999999999999
  0
INSERT
  5
29
100
AcDbEntity
  8
LC-004-006-----0
  6
STRICHLINIE
 62
           2
100
AcDbBlockReference
  2
KM06_2
 10
19.349911
 20
160.947006
 30
0.0
 41
0.5
 42
0.5
 43
0.5
 50
269.999999999999
  0
LINE
  5
2A
100
AcDbEntity
  8
LC-005-002-RND-0
  6
STRICHPUNKT
 62
           2
100
AcDbLine
 10
-13.42851151113
 20
172.947006
 30
0.0
 11
28.837454503181
 21
172.947006
 31
0.0
  0
LINE
  5
2B
100
AcDbEntity
  8
LC-003-002-----0
  6
AUSGEZOGEN
 62
           1
100
AcDbLine
 10
-5.350089
 20
180.947006
 30
0.0
 11
6.0999106
 21
180.947006
 31
0.0
  0
LINE
  5
2C
100
AcDbEntity
  8
LC-003-002-----0
  6
AUSGEZOGEN
 62
           1
100
AcDbLine
 10
-5.350089
 20
164.947006
 30
0.0
 11
6.0999106
 21
164.947006
 31
0.0
  0
LINE
  5
2D
100
AcDbEntity
  8
LC-003-002-----0
  6
AUSGEZOGEN
 62
           1
100
AcDbLine
 10
19.049911
 20
188.947006
 30
0.0
 11
14.649911
 21
188.947006
 31
0.0
  0
LINE
  5
2E
100
AcDbEntity
  8
LC-003-002-----0
  6
AUSGEZOGEN
 62
           1
100
AcDbLine
 10
19.049911
 20
156.947006
 30
0.0
 11
14.649911
 21
156.947006
 31
0.0
  0
LINE
  5
2F
100
AcDbEntity
  8
LC-003-002-----0
  6
AUSGEZOGEN
 62
           1
100
AcDbLine
 10
-5.650089
 20
180.647006
 30
0.0
 11
-5.650089
 21
165.247006
 31
0.0
  0
LINE
  5
30
100
AcDbEntity
  8
LC-003-002-----0
  6
AUSGEZOGEN
 62
           1
100
AcDbLine
 10
19.349911
 20
188.647006
 30
0.0
 11
19.349911
 21
157.247006
 31
0.0
  0
LINE
  5
31
100
AcDbEntity
  8
LC-003-002-----0
  6
AUSGEZOGEN
 62
           1
100
AcDbLine
 10
14.349911
 20
157.247006
 30
0.0
 11
14.349911
 21
188.647006
 31
0.0
  0
LINE
  5
32
100
AcDbEntity
  8
LC-003-002-----0
  6
AUSGEZOGEN
 62
           1
100
AcDbLine
 10
14.049911
 20
180.947006
 30
0.0
 11
14.049911
 21
164.947006
 31
0.0
  0
LINE
  5
33
100
AcDbEntity
  8
LC-003-002-----0
  6
AUSGEZOGEN
 62
           1
100
AcDbLine
 10
14.049911
 20
180.747006
 30
0.0
 11
14.349911
 21
180.747006
 31
0.0
  0
LINE
  5
34
100
AcDbEntity
  8
LC-003-002-----0
  6
AUSGEZOGEN
 62
           1
100
AcDbLine
 10
14.049911
 20
165.147006
 30
0.0
 11
14.349911
 21
165.147006
 31
0.0
  0
LINE
  5
35
100
AcDbEntity
  8
LC-003-002-----0
  6
AUSGEZOGEN
 62
           1
100
AcDbLine
 10
14.349911
 20
157.247006
 30
0.0
 11
14.649911
 21
156.947006
 31
0.0
  0
LINE
  5
36
100
AcDbEntity
  8
LC-003-002-----0
  6
AUSGEZOGEN
 62
           1
100
AcDbLine
 10
14.349911
 20
188.647006
 30
0.0
 11
14.649911
 21
188.947006
 31
0.0
  0
LINE
  5
37
100
AcDbEntity
  8
LC-003-002-----0
  6
AUSGEZOGEN
 62
           1
100
AcDbLine
 10
14.649911
 20
185.01970246765
 30
0.0
 11
14.649911
 21
188.947006
 31
0.0
  0
LINE
  5
38
100
AcDbEntity
  8
LC-003-002-----0
  6
AUSGEZOGEN
 62
           1
100
AcDbLine
 10
14.649911
 20
156.947006
 30
0.0
 11
14.649911
 21
160.87430953235
 31
0.0
  0
LINE
  5
39
100
AcDbEntity
  8
LC-003-002-----0
  6
AUSGEZOGEN
 62
           1
100
AcDbLine
 10
19.349911
 20
188.647006
 30
0.0
 11
19.049911
 21
188.947006
 31
0.0
  0
LINE
  5
3A
100
AcDbEntity
  8
LC-003-002-----0
  6
AUSGEZOGEN
 62
           1
100
AcDbLine
 10
19.349911
 20
157.247006
 30
0.0
 11
19.049911
 21
156.947006
 31
0.0
  0
LINE
  5
3B
100
AcDbEntity
  8
LC-003-002-----0
  6
AUSGEZOGEN
 62
           1
100
AcDbLine
 10
19.049911
 20
160.87430953235
 30
0.0
 11
19.049911
 21
156.947006
 31
0.0
  0
LINE
  5
3C
100
AcDbEntity
  8
LC-003-002-----0
  6
AUSGEZOGEN
 62
           1
100
AcDbLine
 10
19.049911
 20
188.947006
 30
0.0
 11
19.049911
 21
185.01970246765
 31
0.0
  0
ARC
  5
3D
100
AcDbEntity
  8
LC-003-002-----0
  6
AUSGEZOGEN
 62
           1
100
AcDbCircle
 10
-5.350089
 20
180.647006
 30
0.0
 40
0.3
100
AcDbArc
 50
90.000003
 51
180.000009000002
  0
ARC
  5
3E
100
AcDbEntity
  8
LC-003-002-----0
  6
AUSGEZOGEN
 62
           1
100
AcDbCircle
 10
-5.350089
 20
165.247006
 30
0.0
 40
0.3
100
AcDbArc
 50
180.000008999992
 51
269.999997000013
  0
LINE
  5
3F
100
AcDbEntity
  8
LC-005-002-RND-0
  6
STRICHPUNKT
 62
           2
100
AcDbLine
 10
6.849911
 20
164.547006
 30
0.0
 11
6.849911
 21
181.347006
 31
0.0
  0
LINE
  5
40
100
AcDbEntity
  8
LC-003-002-----0
  6
AUSGEZOGEN
 62
           1
100
AcDbLine
 10
7.599911
 20
164.947006
 30
0.0
 11
7.599911
 21
180.947006
 31
0.0
  0
LINE
  5
41
100
AcDbEntity
  8
LC-003-002-----0
  6
AUSGEZOGEN
 62
           1
100
AcDbLine
 10
6.099911
 20
164.947006
 30
0.0
 11
6.099911
 21
180.947006
 31
0.0
  0
ARC
  5
42
100
AcDbEntity
  8
LC-003-002-----0
  6
AUSGEZOGEN
 62
           1
100
AcDbCircle
 10
6.849910978925
 20
181.450131039515
 30
0.0
 40
0.903125039515
100
AcDbArc
 50
213.855032265314
 51
326.144972534684
  0
ARC
  5
43
100
AcDbEntity
  8
LC-003-002-----0
  6
AUSGEZOGEN
 62
           1
100
AcDbCircle
 10
6.849911021075
 20
164.443881039515
 30
0.0
 40
0.903124960485
100
AcDbArc
 50
33.855024791268
 51
146.144980008731
  0
LINE
  5
44
100
AcDbEntity
  8
LC-003-002-----0
  6
AUSGEZOGEN
 62
           1
100
AcDbLine
 10
7.599911
 20
164.947006
 30
0.0
 11
14.049911
 21
164.947006
 31
0.0
  0
LINE
  5
45
100
AcDbEntity
  8
LC-003-002-----0
  6
AUSGEZOGEN
 62
           1
100
AcDbLine
 10
7.599911
 20
180.947006
 30
0.0
 11
14.049911
 21
180.947006
 31
0.0
  0
LINE
  5
46
100
AcDbEntity
  8
LC-005-002-RND-0
  6
STRICHPUNKT
 62
           2
100
AcDbLine
 10
39.571745838606
 20
172.947006
 30
0.0
 11
76.51731285559
 21
172.947006
 31
0.0
  0
LINE
  5
47
100
AcDbEntity
  8
LC-005-002-RND-0
  6
STRICHPUNKT
 62
           2
100
AcDbLine
 10
57.7601906
 20
191.157520908777
 30
0.0
 11
57.7601906
 21
154.317225956811
 31
0.0
  0
ARC
  5
48
100
AcDbEntity
  8
LC-003-002-----0
  6
AUSGEZOGEN
 62
           1
100
AcDbCircle
 10
57.7601906
 20
172.947006
 30
0.0
 40
4.0
100
AcDbArc
 50
66.10522047747
 51
113.89477952253
  0
ARC
  5
49
100
AcDbEntity
  8
LC-003-002-----0
  6
AUSGEZOGEN
 62
           1
100
AcDbCircle
 10
57.7601906
 20
172.947006
 30
0.0
 40
4.0
100
AcDbArc
 50
246.105219969981
 51
293.894780030017
  0
ARC
  5
4A
100
AcDbEntity
  8
LC-003-002-----0
  6
AUSGEZOGEN
 62
           1
100
AcDbCircle
 10
57.7601906
 20
172.947006
 30
0.0
 40
4.0
100
AcDbArc
 50
126.10524503553
 51
233.894757611598
  0
ARC
  5
4B
100
AcDbEntity
  8
LC-003-002-----0
  6
AUSGEZOGEN
 62
           1
100
AcDbCircle
 10
57.7601906
 20
172.947006
 30
0.0
 40
4.0
100
AcDbArc
 50
306.105242388401
 51
53.89475496447
  0
LINE
  5
4C
100
AcDbEntity
  8
LC-005-002-RND-0
  6
STRICHPUNKT
 62
           2
100
AcDbLine
 10
59.422942498269
 20
175.826980570494
 30
0.0
 11
59.934638891565
 21
176.713256901713
 31
0.0
  0
ARC
  5
4D
100
AcDbEntity
  8
LC-003-002-----0
  6
AUSGEZOGEN
 62
           1
100
AcDbCircle
 10
59.804146117886
 20
176.487239053234
 30
0.0
 40
0.43956043956
100
AcDbArc
 50
164.572971
 51
315.427023
  0
ARC
  5
4E
100
AcDbEntity
  8
LC-003-002-----0
  6
AUSGEZOGEN
 62
           1
100
AcDbCircle
 10
55.716234931775
 20
169.406772533714
 30
0.0
 40
0.43956043956
100
AcDbArc
 50
344.572975999999
 51
135.427019999999
  0
LINE
  5
4F
100
AcDbEntity
  8
LC-005-002-RND-0
  6
STRICHPUNKT
 62
           2
100
AcDbLine
 10
56.097438701731
 20
170.067031429506
 30
0.0
 11
55.585742158097
 21
169.180754685235
 31
0.0
  0
ARC
  5
50
100
AcDbEntity
  8
LC-003-002-----0
  6
AUSGEZOGEN
 62
           1
100
AcDbCircle
 10
55.716235082114
 20
176.487239053234
 30
0.0
 40
0.43956043956
100
AcDbArc
 50
224.57298
 51
15.427024
  0
LINE
  5
51
100
AcDbEntity
  8
LC-005-002-RND-0
  6
STRICHPUNKT
 62
           2
100
AcDbLine
 10
56.097438701731
 20
175.826980570494
 30
0.0
 11
55.585742308435
 21
176.713256901713
 31
0.0
  0
LINE
  5
52
100
AcDbEntity
  8
LC-005-002-RND-0
  6
STRICHPUNKT
 62
           2
100
AcDbLine
 10
59.422942498269
 20
170.067031429506
 30
0.0
 11
59.934639041903
 21
169.180754685235
 31
0.0
  0
ARC
  5
53
100
AcDbEntity
  8
LC-003-002-----0
  6
AUSGEZOGEN
 62
           1
100
AcDbCircle
 10
59.804146268225
 20
169.406772533714
 30
0.0
 40
0.43956043956
100
AcDbArc
 50
44.572977000001
 51
195.427028999999
  0
LINE
  5
54
100
AcDbEntity
  8
LC-003-002-----0
  6
AUSGEZOGEN
 62
           1
100
AcDbLine
 10
-11.6286486
 20
176.947006
 30
0.0
 11
-5.650089
 21
176.947006
 31
0.0
  0
LINE
  5
55
100
AcDbEntity
  8
LC-003-002-----0
  6
AUSGEZOGEN
 62
           1
100
AcDbLine
 10
-11.577991
 20
168.947006
 30
0.0
 11
-5.650089
 21
168.947006
 31
0.0
  0
LINE
  5
56
100
AcDbEntity
  8
LC-006-012-----0
  6
AUSGEZOGEN
 62
           2
100
AcDbLine
 10
-11.577991
 20
168.947006
 30
0.0
 11
-11.3672994
 21
170.8153164
 31
0.0
  0
LINE
  5
57
100
AcDbEntity
  8
LC-006-012-----0
  6
AUSGEZOGEN
 62
           2
100
AcDbLine
 10
-11.3672994
 20
170.8153164
 30
0.0
 11
-11.6694218
 21
175.1696744
 31
0.0
  0
LINE
  5
58
100
AcDbEntity
  8
LC-006-012-----0
  6
AUSGEZOGEN
 62
           2
100
AcDbLine
 10
-11.6694218
 20
175.1696744
 30
0.0
 11
-11.6286486
 21
176.947006
 31
0.0
  0
LINE
  5
59
100
AcDbEntity
  8
LC-006-012-----0
  6
AUSGEZOGEN
 62
           2
100
AcDbLine
 10
27.4703242
 20
168.947006
 30
0.0
 11
27.2722102
 21
170.7037868
 31
0.0
  0
LINE
  5
5A
100
AcDbEntity
  8
LC-006-012-----0
  6
AUSGEZOGEN
 62
           2
100
AcDbLine
 10
27.2722102
 20
170.7037868
 30
0.0
 11
27.3477414
 21
174.6677884
 31
0.0
  0
LINE
  5
5B
100
AcDbEntity
  8
LC-006-012-----0
  6
AUSGEZOGEN
 62
           2
100
AcDbLine
 10
27.3477414
 20
174.6677884
 30
0.0
 11
27.1983822
 21
176.947006
 31
0.0
  0
LINE
  5
5C
100
AcDbEntity
  8
LC-004-006-----0
  6
STRICHLINIE
 62
           2
100
AcDbLine
 10
-5.650089
 20
176.947006
 30
0.0
 11
19.349911
 21
176.947006
 31
0.0
  0
LINE
  5
5D
100
AcDbEntity
  8
LC-003-002-----0
  6
AUSGEZOGEN
 62
           1
100
AcDbLine
 10
19.349911
 20
176.947006
 30
0.0
 11
27.1983822
 21
176.947006
 31
0.0
  0
LINE
  5
5E
100
AcDbEntity
  8
LC-004-006-----0
  6
STRICHLINIE
 62
           2
100
AcDbLine
 10
-5.650089
 20
168.947006
 30
0.0
 11
19.349911
 21
168.947006
 31
0.0
  0
LINE
  5
5F
100
AcDbEntity
  8
LC-003-002-----0
  6
AUSGEZOGEN
 62
           1
100
AcDbLine
 10
19.349911
 20
168.947006
 30
0.0
 11
27.4703242
 21
168.947006
 31
0.0
  0
LINE
  5
60
100
AcDbEntity
  8
LC-003-002-----0
  6
AUSGEZOGEN
 62
           1
100
AcDbLine
 10
27.431662165125
 20
169.289842551469
 30
0.0
 11
19.3499142
 21
169.289842551469
 31
0.0
  0
LINE
  5
61
100
AcDbEntity
  8
LC-004-006-----0
  6
STRICHLINIE
 62
           2
100
AcDbLine
 10
19.349911
 20
169.289842551469
 30
0.0
 11
-5.650089
 21
169.289842551469
 31
0.0
  0
LINE
  5
62
100
AcDbEntity
  8
LC-003-002-----0
  6
AUSGEZOGEN
 62
           1
100
AcDbLine
 10
-5.650089
 20
169.289842551469
 30
0.0
 11
-11.539328911748
 21
169.289842551469
 31
0.0
  0
LINE
  5
63
100
AcDbEntity
  8
LC-003-002-----0
  6
AUSGEZOGEN
 62
           1
100
AcDbLine
 10
-5.650089
 20
176.604169462882
 30
0.0
 11
-11.63651350416
 21
176.604169462882
 31
0.0
  0
LINE
  5
64
100
AcDbEntity
  8
LC-004-006-----0
  6
STRICHLINIE
 62
           2
100
AcDbLine
 10
19.349911
 20
176.604169462882
 30
0.0
 11
-5.650089
 21
176.604169462882
 31
0.0
  0
LINE
  5
65
100
AcDbEntity
  8
LC-003-002-----0
  6
AUSGEZOGEN
 62
           1
100
AcDbLine
 10
27.220848589745
 20
176.604169462882
 30
0.0
 11
19.349911
 21
176.604169462882
 31
0.0
  0
LINE
  5
66
100
AcDbEntity
  8
LC-003-002-----0
  6
AUSGEZOGEN
 62
           1
100
AcDbLine
 10
-5.650089
 20
176.178749774513
 30
0.0
 11
-11.646272922177
 21
176.178749774513
 31
0.0
  0
LINE
  5
67
100
AcDbEntity
  8
LC-004-006-----0
  6
STRICHLINIE
 62
           2
100
AcDbLine
 10
19.349911
 20
176.178749774513
 30
0.0
 11
-5.650089
 21
176.178749774513
 31
0.0
  0
LINE
  5
68
100
AcDbEntity
  8
LC-003-002-----0
  6
AUSGEZOGEN
 62
           1
100
AcDbLine
 10
27.248726728418
 20
176.178749774513
 30
0.0
 11
19.349911
 21
176.178749774513
 31
0.0
  0
LINE
  5
69
100
AcDbEntity
  8
LC-003-002-----0
  6
AUSGEZOGEN
 62
           1
100
AcDbLine
 10
-5.650089
 20
169.715262225487
 30
0.0
 11
-11.491353825921
 21
169.715262225487
 31
0.0
  0
LINE
  5
6A
100
AcDbEntity
  8
LC-004-006-----0
  6
STRICHLINIE
 62
           2
100
AcDbLine
 10
19.349911
 20
169.715262225487
 30
0.0
 11
-5.650089
 21
169.715262225487
 31
0.0
  0
LINE
  5
6B
100
AcDbEntity
  8
LC-003-002-----0
  6
AUSGEZOGEN
 62
           1
100
AcDbLine
 10
27.383687145533
 20
169.715262225487
 30
0.0
 11
19.349911
 21
169.715262225487
 31
0.0
  0
LINE
  5
6C
100
AcDbEntity
  8
LC-005-002-RND-0
  6
STRICHPUNKT
 62
           2
100
AcDbLine
 10
21.266587
 20
184.947006
 30
0.0
 11
11.5958166
 21
184.947006
 31
0.0
  0
LINE
  5
6D
100
AcDbEntity
  8
LC-005-002-RND-0
  6
STRICHPUNKT
 62
           2
100
AcDbLine
 10
21.266587
 20
160.947006
 30
0.0
 11
11.5958166
 21
160.947006
 31
0.0
  0
CIRCLE
  5
6E
100
AcDbEntity
  8
LC-003-002-----0
  6
AUSGEZOGEN
 62
           1
100
AcDbCircle
 10
57.7601906
 20
172.947006
 30
0.0
 40
8.0
  0
ARC
  5
6F
100
AcDbEntity
  8
LC-003-002-----0
  6
AUSGEZOGEN
 62
           1
100
AcDbCircle
 10
57.7601906
 20
172.947006
 30
0.0
 40
15.7
100
AcDbArc
 50
48.026269746375
 51
131.973730253625
  0
ARC
  5
70
100
AcDbEntity
  8
LC-003-002-----0
  6
AUSGEZOGEN
 62
           1
100
AcDbCircle
 10
57.7601906
 20
172.947006
 30
0.0
 40
15.7
100
AcDbArc
 50
228.026269746374
 51
311.973730253625
  0
ARC
  5
71
100
AcDbEntity
  8
LC-003-002-----0
  6
AUSGEZOGEN
 62
           1
100
AcDbCircle
 10
57.7601906
 20
172.947006
 30
0.0
 40
16.0
100
AcDbArc
 50
48.985500334269
 51
131.01449966573
  0
ARC
  5
72
100
AcDbEntity
  8
LC-003-002-----0
  6
AUSGEZOGEN
 62
           1
100
AcDbCircle
 10
57.7601906
 20
172.947006
 30
0.0
 40
16.0
100
AcDbArc
 50
228.985500334269
 51
311.01449966573
  0
ARC
  5
73
100
AcDbEntity
  8
LC-005-002-RND-0
  6
STRICHPUNKT
 62
           2
100
AcDbCircle
 10
57.7601906
 20
172.947006
 30
0.0
 40
12.0
100
AcDbArc
 50
50.60261318894
 51
132.568567092666
  0
ARC
  5
74
100
AcDbEntity
  8
LC-005-002-RND-0
  6
STRICHPUNKT
 62
           2
100
AcDbCircle
 10
57.7601906
 20
172.947006
 30
0.0
 40
12.0
100
AcDbArc
 50
228.372250619438
 51
315.316974882504
  0
CIRCLE
  5
75
100
AcDbEntity
  8
LC-004-006-----0
  6
STRICHLINIE
 62
           2
100
AcDbCircle
 10
57.7601906
 20
184.947006
 30
0.0
 40
2.75
  0
CIRCLE
  5
76
100
AcDbEntity
  8
LC-003-002-----0
  6
AUSGEZOGEN
 62
           1
100
AcDbCircle
 10
57.7601906
 20
184.947006
 30
0.0
 40
1.650001525879
  0
CIRCLE
  5
77
100
AcDbEntity
  8
LC-004-006-----0
  6
STRICHLINIE
 62
           2
100
AcDbCircle
 10
57.7601906
 20
160.947006
 30
0.0
 40
2.75
  0
CIRCLE
  5
78
100
AcDbEntity
  8
LC-003-002-----0
  6
AUSGEZOGEN
 62
           1
100
AcDbCircle
 10
57.7601906
 20
160.947006
 30
0.0
 40
1.650001525879
  0
CIRCLE
  5
79
100
AcDbEntity
  8
LC-003-002-----0
  6
AUSGEZOGEN
 62
           1
100
AcDbCircle
 10
6.849911
 20
172.947006
 30
0.0
 40
0.75
  0
LINE
  5
7A
100
AcDbEntity
  8
LC-003-002-----0
  6
AUSGEZOGEN
 62
           1
100
AcDbLine
 10
47.2601906
 20
185.01970246765
 30
0.0
 11
47.2601906
 21
160.87430953235
 31
0.0
  0
LINE
  5
7B
100
AcDbEntity
  8
LC-003-002-----0
  6
AUSGEZOGEN
 62
           1
100
AcDbLine
 10
68.2601906
 20
185.01970246765
 30
0.0
 11
68.2601906
 21
160.87430953235
 31
0.0
  0
LINE
  5
7C
100
AcDbEntity
  8
LC-003-002-----0
  6
AUSGEZOGEN
 62
           1
100
AcDbLine
 10
14.349911
 20
185.01970246765
 30
0.0
 11
19.349911
 21
185.01970246765
 31
0.0
  0
LINE
  5
7D
100
AcDbEntity
  8
LC-003-002-----0
  6
AUSGEZOGEN
 62
           1
100
AcDbLine
 10
14.349911
 20
160.87430953235
 30
0.0
 11
19.349911
 21
160.87430953235
 31
0.0
  0
LINE
  5
7E
100
AcDbEntity
  8
LC-006-012-----0
  6
AUSGEZOGEN
 62
           2
100
AcDbLine
 10
19.349911
 20
185.01970246765
 30
0.0
 11
14.349911
 21
160.87430953235
 31
0.0
  0
LINE
  5
7F
100
AcDbEntity
  8
LC-006-012-----0
  6
AUSGEZOGEN
 62
           2
100
AcDbLine
 10
19.349911
 20
160.87430953235
 30
0.0
 11
14.349911
 21
185.01970246765
 31
0.0
  0
ENDSEC
  0
SECTION
  2
OBJECTS
  0
DICTIONARY
  5
19
100
AcDbDictionary
  3
ACAD_GROUP
350
1A
  3
ACAD_MLINESTYLE
350
1B
  0
DICTIONARY
  5
1A
102
{ACAD_REACTORS
330
19
102
}
100
AcDbDictionary
  0
DICTIONARY
  5
1B
102
{ACAD_REACTORS
330
19
102
}
100
AcDbDictionary
  3
STANDARD
350
1C
  0
MLINESTYLE
  5
1C
102
{ACAD_REACTORS
330
1B
102
}
100
AcDbMlineStyle
  2
STANDARD
 70
           0
  3

 62
           0
 51
90.0
 52
90.0
 71
           2
 49
0.5
 62
         256
  6
BYLAYER
 49
-0.5
 62
         256
  6
BYLAYER
  0
ENDSEC
  0
EOF
