  0
SECTION
  2
HEADER
  9
$LIMMIN
 10
317.584900
 20
294.349335
  9
$LIMMAX
 10
542.198425
 20
383.452484
  9
$EXTMIN
 10
317.584900
 20
294.349335
  9
$EXTMAX
 10
542.198425
 20
383.452484
  0
ENDSEC
  0
SECTION
  2
TABLES
  0
TABLE
  2
LTYPE
 70
     3
  0
LTYPE
  2
CONTINUOUS
 70
    64
  3
Ausgezogene Linie
 72
    65
 73
     0
 40
0.0
  0
LTYPE
  2
DASHED
 70
    64
  3
__ __ __ __ __ __ __ __ __ __ __ __ __ __ __
 72
    65
 73
     2
 40
0.75
 49
0.5
 49
-0.25
  0
LTYPE
  2
DASHDOT
 70
    64
  3
__ . __ . __ . __ . __ . __ . __ . __ . __ . __
 72
    65
 73
     4
 40
1.0
 49
0.5
 49
-0.25
 49
0.0
 49
-0.25
  0
ENDTAB
  0
TABLE
  2
LAYER
 70
     5
  0
LAYER
  2
LC-INFO-1-1-MM-A2-0
 70
    64
 62
     7
  6
CONTINUOUS
  0
LAYER
  2
LC-003-002-----0
 70
    64
 62
     7
  6
CONTINUOUS
  0
LAYER
  2
LC-005-002-RND-0
 70
    64
 62
     7
  6
CONTINUOUS
  0
LAYER
  2
LC-004-006-----0
 70
    64
 62
     7
  6
CONTINUOUS
  0
LAYER
  2
LC-006-012-----0
 70
    64
 62
     7
  6
CONTINUOUS
  0
ENDTAB
  0
TABLE
  2
STYLE
 70
     1
  0
STYLE
  2
TXT8
 70
    64
 40
0.0
 41
1.0
 50
0.0
 71
     0
 42
3.500000
  3
TXT8
  4

  0
ENDTAB
  0
ENDSEC
  0
SECTION
  2
BLOCKS
  0
ENDSEC
  0
SECTION
  2
ENTITIES
  0
LINE
  8
LC-006-012-----0
 62
     2
  6
CONTINUOUS
 10
406.020813
 20
357.654510
 11
405.614349
 21
358.060974
  0
LINE
  8
LC-006-012-----0
 62
     2
  6
CONTINUOUS
 10
405.785950
 20
355.060974
 11
402.785950
 21
358.060974
  0
LINE
  8
LC-006-012-----0
 62
     2
  6
CONTINUOUS
 10
402.957520
 20
355.060974
 11
402.020813
 21
355.997650
  0
LINE
  8
LC-006-012-----0
 62
     2
  6
CONTINUOUS
 10
401.957520
 20
356.060974
 11
399.957520
 21
358.060974
  0
LINE
  8
LC-006-012-----0
 62
     2
  6
CONTINUOUS
 10
400.129089
 20
355.060974
 11
397.129089
 21
358.060974
  0
LINE
  8
LC-006-012-----0
 62
     2
  6
CONTINUOUS
 10
397.000732
 20
355.360901
 11
395.300659
 21
357.060974
  0
LINE
  8
LC-006-012-----0
 62
     2
  6
CONTINUOUS
 10
394.520813
 20
357.840790
 11
394.300659
 21
358.060974
  0
LINE
  8
LC-006-012-----0
 62
     2
  6
CONTINUOUS
 10
394.472229
 20
355.060974
 11
391.472229
 21
358.060974
  0
LINE
  8
LC-006-012-----0
 62
     2
  6
CONTINUOUS
 10
391.643799
 20
355.060974
 11
388.643799
 21
358.060974
  0
LINE
  8
LC-006-012-----0
 62
     2
  6
CONTINUOUS
 10
388.815369
 20
355.060974
 11
385.815369
 21
358.060974
  0
LINE
  8
LC-006-012-----0
 62
     2
  6
CONTINUOUS
 10
385.986938
 20
355.060974
 11
382.986938
 21
358.060974
  0
LINE
  8
LC-006-012-----0
 62
     2
  6
CONTINUOUS
 10
383.158508
 20
355.060974
 11
380.158508
 21
358.060974
  0
LINE
  8
LC-006-012-----0
 62
     2
  6
CONTINUOUS
 10
380.330078
 20
355.060974
 11
377.330078
 21
358.060974
  0
LINE
  8
LC-006-012-----0
 62
     2
  6
CONTINUOUS
 10
377.501678
 20
355.060974
 11
374.501678
 21
358.060974
  0
LINE
  8
LC-006-012-----0
 62
     2
  6
CONTINUOUS
 10
374.673248
 20
355.060974
 11
371.673248
 21
358.060974
  0
LINE
  8
LC-006-012-----0
 62
     2
  6
CONTINUOUS
 10
371.844818
 20
355.060974
 11
368.844818
 21
358.060974
  0
LINE
  8
LC-006-012-----0
 62
     2
  6
CONTINUOUS
 10
369.016388
 20
355.060974
 11
366.016388
 21
358.060974
  0
LINE
  8
LC-006-012-----0
 62
     2
  6
CONTINUOUS
 10
366.187958
 20
355.060974
 11
363.187958
 21
358.060974
  0
LINE
  8
LC-006-012-----0
 62
     2
  6
CONTINUOUS
 10
363.359528
 20
355.060974
 11
360.359528
 21
358.060974
  0
LINE
  8
LC-006-012-----0
 62
     2
  6
CONTINUOUS
 10
360.531097
 20
355.060974
 11
357.531097
 21
358.060974
  0
LINE
  8
LC-006-012-----0
 62
     2
  6
CONTINUOUS
 10
357.702667
 20
355.060974
 11
355.520813
 21
357.242798
  0
LINE
  8
LC-006-012-----0
 62
     2
  6
CONTINUOUS
 10
354.296021
 20
355.639191
 11
351.874237
 21
358.060974
  0
LINE
  8
LC-006-012-----0
 62
     2
  6
CONTINUOUS
 10
352.045807
 20
355.060974
 11
349.045807
 21
358.060974
  0
LINE
  8
LC-006-012-----0
 62
     2
  6
CONTINUOUS
 10
349.217407
 20
355.060974
 11
349.020813
 21
355.257538
  0
LINE
  8
LC-006-012-----0
 62
     2
  6
CONTINUOUS
 10
348.217407
 20
356.060974
 11
346.217407
 21
358.060974
  0
LINE
  8
LC-006-012-----0
 62
     2
  6
CONTINUOUS
 10
346.388977
 20
355.060974
 11
344.020813
 21
357.429108
  0
LINE
  8
LC-006-012-----0
 62
     2
  6
CONTINUOUS
 10
406.345245
 20
378.060974
 11
408.062531
 21
379.778259
  0
LINE
  8
LC-006-012-----0
 62
     2
  6
CONTINUOUS
 10
401.516815
 20
376.060974
 11
402.820831
 21
377.364990
  0
LINE
  8
LC-006-012-----0
 62
     2
  6
CONTINUOUS
 10
403.516815
 20
378.060974
 11
405.516815
 21
380.060974
  0
LINE
  8
LC-006-012-----0
 62
     2
  6
CONTINUOUS
 10
398.688385
 20
376.060974
 11
402.688385
 21
380.060974
  0
LINE
  8
LC-006-012-----0
 62
     2
  6
CONTINUOUS
 10
398.520813
 20
378.721832
 11
399.859955
 21
380.060974
  0
LINE
  8
LC-006-012-----0
 62
     2
  6
CONTINUOUS
 10
407.315796
 20
362.060974
 11
408.520813
 21
363.265991
  0
LINE
  8
LC-006-012-----0
 62
     2
  6
CONTINUOUS
 10
404.487366
 20
362.060974
 11
408.520813
 21
366.094421
  0
LINE
  8
LC-006-012-----0
 62
     2
  6
CONTINUOUS
 10
401.658936
 20
362.060974
 11
406.658936
 21
367.060974
  0
LINE
  8
LC-006-012-----0
 62
     2
  6
CONTINUOUS
 10
398.830505
 20
362.060974
 11
403.830505
 21
367.060974
  0
LINE
  8
LC-006-012-----0
 62
     2
  6
CONTINUOUS
 10
396.002075
 20
362.060974
 11
397.752075
 21
363.810974
  0
LINE
  8
LC-006-012-----0
 62
     2
  6
CONTINUOUS
 10
398.520813
 20
364.579712
 11
402.820831
 21
368.879700
  0
LINE
  8
LC-006-012-----0
 62
     2
  6
CONTINUOUS
 10
393.173645
 20
362.060974
 11
396.173645
 21
365.060974
  0
LINE
  8
LC-006-012-----0
 62
     2
  6
CONTINUOUS
 10
398.520813
 20
367.408142
 11
400.173645
 21
369.060974
  0
LINE
  8
LC-006-012-----0
 62
     2
  6
CONTINUOUS
 10
390.345245
 20
362.060974
 11
393.345245
 21
365.060974
  0
LINE
  8
LC-006-012-----0
 62
     2
  6
CONTINUOUS
 10
387.516815
 20
362.060974
 11
390.516815
 21
365.060974
  0
LINE
  8
LC-006-012-----0
 62
     2
  6
CONTINUOUS
 10
384.688385
 20
362.060974
 11
387.688385
 21
365.060974
  0
LINE
  8
LC-006-012-----0
 62
     2
  6
CONTINUOUS
 10
381.859955
 20
362.060974
 11
384.859955
 21
365.060974
  0
LINE
  8
LC-006-012-----0
 62
     2
  6
CONTINUOUS
 10
379.031525
 20
362.060974
 11
382.031525
 21
365.060974
  0
LINE
  8
LC-006-012-----0
 62
     2
  6
CONTINUOUS
 10
376.203094
 20
362.060974
 11
379.203094
 21
365.060974
  0
LINE
  8
LC-006-012-----0
 62
     2
  6
CONTINUOUS
 10
373.374664
 20
362.060974
 11
376.374664
 21
365.060974
  0
LINE
  8
LC-006-012-----0
 62
     2
  6
CONTINUOUS
 10
370.546234
 20
362.060974
 11
373.546234
 21
365.060974
  0
LINE
  8
LC-006-012-----0
 62
     2
  6
CONTINUOUS
 10
367.717804
 20
362.060974
 11
370.717804
 21
365.060974
  0
LINE
  8
LC-006-012-----0
 62
     2
  6
CONTINUOUS
 10
364.889374
 20
362.060974
 11
367.889374
 21
365.060974
  0
LINE
  8
LC-006-012-----0
 62
     2
  6
CONTINUOUS
 10
362.060974
 20
362.060974
 11
365.060974
 21
365.060974
  0
LINE
  8
LC-006-012-----0
 62
     2
  6
CONTINUOUS
 10
359.232544
 20
362.060974
 11
362.232544
 21
365.060974
  0
LINE
  8
LC-006-012-----0
 62
     2
  6
CONTINUOUS
 10
356.404114
 20
362.060974
 11
359.404114
 21
365.060974
  0
LINE
  8
LC-006-012-----0
 62
     2
  6
CONTINUOUS
 10
353.575684
 20
362.060974
 11
356.575684
 21
365.060974
  0
LINE
  8
LC-006-012-----0
 62
     2
  6
CONTINUOUS
 10
350.747253
 20
362.060974
 11
353.747253
 21
365.060974
  0
LINE
  8
LC-006-012-----0
 62
     2
  6
CONTINUOUS
 10
347.918823
 20
362.060974
 11
350.918823
 21
365.060974
  0
LINE
  8
LC-006-012-----0
 62
     2
  6
CONTINUOUS
 10
345.090393
 20
362.060974
 11
348.090393
 21
365.060974
  0
LINE
  8
LC-006-012-----0
 62
     2
  6
CONTINUOUS
 10
342.261963
 20
362.060974
 11
343.020813
 21
362.819824
  0
LINE
  8
LC-006-012-----0
 62
     2
  6
CONTINUOUS
 10
343.261963
 20
363.060974
 11
345.261963
 21
365.060974
  0
LINE
  8
LC-006-012-----0
 62
     2
  6
CONTINUOUS
 10
341.588104
 20
364.215515
 11
342.366272
 21
364.993683
  0
LINE
  8
LC-003-002-----0
 62
     1
  6
CONTINUOUS
 10
321.672455
 20
351.560974
 11
341.520813
 21
351.560974
  0
LINE
  8
LC-005-002-RND-0
 62
     2
  6
DASHDOT
 10
317.584900
 20
339.060974
 11
434.368073
 21
339.060974
  0
LINE
  8
LC-003-002-----0
 62
     1
  6
CONTINUOUS
 10
342.770813
 20
365.060974
 11
397.270813
 21
365.060974
  0
LINE
  8
LC-003-002-----0
 62
     1
  6
CONTINUOUS
 10
342.770813
 20
313.060974
 11
397.270813
 21
313.060974
  0
LINE
  8
LC-003-002-----0
 62
     1
  6
CONTINUOUS
 10
399.770813
 20
380.060974
 11
407.270813
 21
380.060974
  0
LINE
  8
LC-003-002-----0
 62
     1
  6
CONTINUOUS
 10
399.770813
 20
298.060974
 11
407.270813
 21
298.060974
  0
LINE
  8
LC-003-002-----0
 62
     1
  6
CONTINUOUS
 10
341.520813
 20
363.810974
 11
341.520813
 21
351.560974
  0
LINE
  8
LC-003-002-----0
 62
     1
  6
CONTINUOUS
 10
408.520813
 20
378.810974
 11
408.520813
 21
351.560974
  0
LINE
  8
LC-003-002-----0
 62
     1
  6
CONTINUOUS
 10
398.520813
 20
378.810974
 11
398.520813
 21
363.810974
  0
LINE
  8
LC-003-002-----0
 62
     1
  6
CONTINUOUS
 10
408.520813
 20
351.560974
 11
429.661560
 21
351.560974
  0
LINE
  8
LC-003-002-----0
 62
     1
  6
CONTINUOUS
 10
321.734558
 20
326.560974
 11
341.520813
 21
326.560974
  0
LINE
  8
LC-006-012-----0
 62
     2
  6
CONTINUOUS
 10
321.734558
 20
326.560974
 11
322.307556
 21
331.149292
  0
LINE
  8
LC-006-012-----0
 62
     2
  6
CONTINUOUS
 10
322.307556
 20
331.149292
 11
321.260529
 21
343.259888
  0
LINE
  8
LC-006-012-----0
 62
     2
  6
CONTINUOUS
 10
321.260529
 20
343.259888
 11
321.672455
 21
351.560974
  0
LINE
  8
LC-006-012-----0
 62
     2
  6
CONTINUOUS
 10
430.398865
 20
326.560974
 11
429.574554
 21
333.202271
  0
LINE
  8
LC-006-012-----0
 62
     2
  6
CONTINUOUS
 10
429.574554
 20
333.202271
 11
430.499603
 21
343.942871
  0
LINE
  8
LC-006-012-----0
 62
     2
  6
CONTINUOUS
 10
430.499603
 20
343.942871
 11
429.661560
 21
351.560974
  0
LINE
  8
LC-003-002-----0
 62
     1
  6
CONTINUOUS
 10
341.520813
 20
351.560974
 11
408.520813
 21
351.560974
  0
LINE
  8
LC-004-006-----0
 62
     2
  6
DASHED
 10
341.520813
 20
326.560974
 11
408.520813
 21
326.560974
  0
LINE
  8
LC-003-002-----0
 62
     1
  6
CONTINUOUS
 10
408.520813
 20
326.560974
 11
430.398865
 21
326.560974
  0
ARC
  8
LC-003-002-----0
 62
     1
  6
CONTINUOUS
 10
342.770813
 20
363.810974
 40
1.250000
 50
90.000003
 51
180.000009
  0
ARC
  8
LC-003-002-----0
 62
     1
  6
CONTINUOUS
 10
342.770813
 20
314.310974
 40
1.250000
 50
180.000009
 51
269.999997
  0
ARC
  8
LC-003-002-----0
 62
     1
  6
CONTINUOUS
 10
399.770813
 20
299.310974
 40
1.250000
 50
180.000009
 51
269.999997
  0
ARC
  8
LC-003-002-----0
 62
     1
  6
CONTINUOUS
 10
407.270813
 20
299.310974
 40
1.250000
 50
269.999997
 51
0.000000
  0
ARC
  8
LC-003-002-----0
 62
     1
  6
CONTINUOUS
 10
407.270813
 20
378.810974
 40
1.250000
 50
0.000000
 51
90.000003
  0
ARC
  8
LC-003-002-----0
 62
     1
  6
CONTINUOUS
 10
399.770813
 20
378.810974
 40
1.250000
 50
90.000003
 51
180.000009
  0
LINE
  8
LC-003-002-----0
 62
     1
  6
CONTINUOUS
 10
397.270813
 20
365.060974
 11
397.270813
 21
363.810974
  0
LINE
  8
LC-003-002-----0
 62
     1
  6
CONTINUOUS
 10
397.270813
 20
363.810974
 11
398.520813
 21
363.810974
  0
LINE
  8
LC-003-002-----0
 62
     1
  6
CONTINUOUS
 10
397.270813
 20
314.310974
 11
398.520813
 21
314.310974
  0
LINE
  8
LC-005-002-RND-0
 62
     2
  6
DASHDOT
 10
452.653931
 20
339.060974
 11
542.198425
 21
339.060974
  0
LINE
  8
LC-005-002-RND-0
 62
     2
  6
DASHDOT
 10
497.301392
 20
383.452484
 11
497.301392
 21
294.349335
  0
CIRCLE
  8
LC-003-002-----0
 62
     1
  6
CONTINUOUS
 10
497.301392
 20
339.060974
 40
12.500000
  0
ARC
  8
LC-003-002-----0
 62
     1
  6
CONTINUOUS
 10
497.301392
 20
339.060974
 40
41.000000
 50
263.694743
 51
276.305259
  0
CIRCLE
  8
LC-003-002-----0
 62
     1
  6
CONTINUOUS
 10
497.301392
 20
339.060974
 40
26.000000
  0
CIRCLE
  8
LC-005-002-RND-0
 62
     2
  6
DASHDOT
 10
497.301392
 20
339.060974
 40
33.500000
  0
CIRCLE
  8
LC-004-006-----0
 62
     2
  6
DASHED
 10
497.301392
 20
372.560974
 40
5.500000
  0
CIRCLE
  8
LC-003-002-----0
 62
     1
  6
CONTINUOUS
 10
497.301392
 20
372.560974
 40
3.500000
  0
CIRCLE
  8
LC-003-002-----0
 62
     1
  6
CONTINUOUS
 10
463.801392
 20
339.060974
 40
3.500000
  0
LINE
  8
LC-003-002-----0
 62
     1
  6
CONTINUOUS
 10
501.804230
 20
298.308960
 11
538.053406
 21
334.558105
  0
CIRCLE
  8
LC-004-006-----0
 62
     2
  6
DASHED
 10
463.801392
 20
339.060974
 40
5.500000
  0
LINE
  8
LC-003-002-----0
 62
     1
  6
CONTINUOUS
 10
538.053406
 20
343.563812
 11
501.804199
 21
379.812958
  0
LINE
  8
LC-003-002-----0
 62
     1
  6
CONTINUOUS
 10
492.798553
 20
379.812958
 11
456.549408
 21
343.563812
  0
LINE
  8
LC-003-002-----0
 62
     1
  6
CONTINUOUS
 10
456.549408
 20
334.558105
 11
492.798553
 21
298.308960
  0
CIRCLE
  8
LC-003-002-----0
 62
     1
  6
CONTINUOUS
 10
497.301392
 20
305.560974
 40
3.500000
  0
CIRCLE
  8
LC-004-006-----0
 62
     2
  6
DASHED
 10
497.301392
 20
305.560974
 40
5.500000
  0
CIRCLE
  8
LC-004-006-----0
 62
     2
  6
DASHED
 10
530.801392
 20
339.060974
 40
5.500000
  0
CIRCLE
  8
LC-003-002-----0
 62
     1
  6
CONTINUOUS
 10
530.801392
 20
339.060974
 40
3.500000
  0
ARC
  8
LC-003-002-----0
 62
     1
  6
CONTINUOUS
 10
497.301392
 20
339.060974
 40
41.000000
 50
173.694743
 51
186.305257
  0
ARC
  8
LC-003-002-----0
 62
     1
  6
CONTINUOUS
 10
497.301392
 20
339.060974
 40
41.000000
 50
83.694741
 51
96.305257
  0
ARC
  8
LC-003-002-----0
 62
     1
  6
CONTINUOUS
 10
497.301392
 20
339.060974
 40
41.000000
 50
353.694740
 51
6.305260
  0
LINE
  8
LC-005-002-RND-0
 62
     2
  6
DASHDOT
 10
413.116943
 20
372.560974
 11
394.532196
 21
372.560974
  0
LINE
  8
LC-003-002-----0
 62
     1
  6
CONTINUOUS
 10
408.520813
 20
378.060974
 11
402.820831
 21
378.060974
  0
LINE
  8
LC-003-002-----0
 62
     1
  6
CONTINUOUS
 10
402.820831
 20
376.060974
 11
398.520813
 21
376.060974
  0
LINE
  8
LC-003-002-----0
 62
     1
  6
CONTINUOUS
 10
402.820831
 20
378.060974
 11
402.820831
 21
367.060974
  0
LINE
  8
LC-003-002-----0
 62
     1
  6
CONTINUOUS
 10
402.820831
 20
369.060974
 11
398.520813
 21
369.060974
  0
LINE
  8
LC-003-002-----0
 62
     1
  6
CONTINUOUS
 10
408.520813
 20
367.060974
 11
402.820831
 21
367.060974
  0
LINE
  8
LC-005-002-RND-0
 62
     2
  6
DASHDOT
 10
413.116943
 20
305.560974
 11
394.532196
 21
305.560974
  0
LINE
  8
LC-004-006-----0
 62
     2
  6
DASHED
 10
408.520813
 20
300.060974
 11
402.820831
 21
300.060974
  0
LINE
  8
LC-004-006-----0
 62
     2
  6
DASHED
 10
402.820831
 20
302.060974
 11
398.520813
 21
302.060974
  0
LINE
  8
LC-004-006-----0
 62
     2
  6
DASHED
 10
402.820831
 20
300.060974
 11
402.820831
 21
311.060974
  0
LINE
  8
LC-004-006-----0
 62
     2
  6
DASHED
 10
402.820831
 20
309.060974
 11
398.520813
 21
309.060974
  0
LINE
  8
LC-004-006-----0
 62
     2
  6
DASHED
 10
408.520813
 20
311.060974
 11
402.820831
 21
311.060974
  0
LINE
  8
LC-003-002-----0
 62
     1
  6
CONTINUOUS
 10
408.520813
 20
339.060974
 11
408.520813
 21
299.310974
  0
LINE
  8
LC-003-002-----0
 62
     1
  6
CONTINUOUS
 10
397.270813
 20
339.060974
 11
397.270813
 21
313.060974
  0
LINE
  8
LC-003-002-----0
 62
     1
  6
CONTINUOUS
 10
398.520813
 20
339.060974
 11
398.520813
 21
299.310974
  0
LINE
  8
LC-003-002-----0
 62
     1
  6
CONTINUOUS
 10
341.520813
 20
339.060974
 11
341.520813
 21
314.310974
  0
CIRCLE
  8
LC-003-002-----0
 62
     1
  6
CONTINUOUS
 10
371.520813
 20
353.310974
 40
1.750000
  0
CIRCLE
  8
LC-003-002-----0
 62
     1
  6
CONTINUOUS
 10
497.301392
 20
339.060974
 40
22.000000
  0
CIRCLE
  8
LC-003-002-----0
 62
     1
  6
CONTINUOUS
 10
497.301392
 20
339.060974
 40
20.000000
  0
CIRCLE
  8
LC-003-002-----0
 62
     1
  6
CONTINUOUS
 10
497.301392
 20
339.060974
 40
18.000000
  0
LINE
  8
LC-003-002-----0
 62
     1
  6
CONTINUOUS
 10
344.020813
 20
355.060974
 11
348.020813
 21
355.060974
  0
CIRCLE
  8
LC-003-002-----0
 62
     1
  6
CONTINUOUS
 10
375.020813
 20
353.310974
 40
1.750000
  0
CIRCLE
  8
LC-003-002-----0
 62
     1
  6
CONTINUOUS
 10
378.520813
 20
353.310974
 40
1.750000
  0
CIRCLE
  8
LC-003-002-----0
 62
     1
  6
CONTINUOUS
 10
382.020813
 20
353.310974
 40
1.750000
  0
CIRCLE
  8
LC-003-002-----0
 62
     1
  6
CONTINUOUS
 10
385.520813
 20
353.310974
 40
1.750000
  0
CIRCLE
  8
LC-003-002-----0
 62
     1
  6
CONTINUOUS
 10
389.020813
 20
353.310974
 40
1.750000
  0
CIRCLE
  8
LC-003-002-----0
 62
     1
  6
CONTINUOUS
 10
392.520813
 20
353.310974
 40
1.750000
  0
CIRCLE
  8
LC-003-002-----0
 62
     1
  6
CONTINUOUS
 10
396.020813
 20
353.910950
 40
1.750000
  0
LINE
  8
LC-003-002-----0
 62
     1
  6
CONTINUOUS
 10
397.339905
 20
355.060974
 11
401.020813
 21
355.060974
  0
CIRCLE
  8
LC-003-002-----0
 62
     1
  6
CONTINUOUS
 10
368.020813
 20
353.310974
 40
1.750000
  0
CIRCLE
  8
LC-003-002-----0
 62
     1
  6
CONTINUOUS
 10
364.520813
 20
353.310974
 40
1.750000
  0
CIRCLE
  8
LC-003-002-----0
 62
     1
  6
CONTINUOUS
 10
361.020813
 20
353.310974
 40
1.750000
  0
CIRCLE
  8
LC-003-002-----0
 62
     1
  6
CONTINUOUS
 10
357.520813
 20
353.310974
 40
1.750000
  0
CIRCLE
  8
LC-003-002-----0
 62
     1
  6
CONTINUOUS
 10
354.020813
 20
353.910950
 40
1.750000
  0
LINE
  8
LC-003-002-----0
 62
     1
  6
CONTINUOUS
 10
355.339905
 20
355.060974
 11
394.701721
 21
355.060974
  0
LINE
  8
LC-003-002-----0
 62
     1
  6
CONTINUOUS
 10
349.020813
 20
355.060974
 11
352.701721
 21
355.060974
  0
LINE
  8
LC-003-002-----0
 62
     1
  6
CONTINUOUS
 10
407.020813
 20
363.060974
 11
407.020813
 21
351.560974
  0
LINE
  8
LC-003-002-----0
 62
     1
  6
CONTINUOUS
 10
341.520813
 20
362.060974
 11
343.020813
 21
362.060974
  0
CIRCLE
  8
LC-003-002-----0
 62
     1
  6
CONTINUOUS
 10
375.020813
 20
360.060974
 40
2.000000
  0
CIRCLE
  8
LC-003-002-----0
 62
     1
  6
CONTINUOUS
 10
382.020813
 20
360.060974
 40
2.000000
  0
CIRCLE
  8
LC-003-002-----0
 62
     1
  6
CONTINUOUS
 10
389.020813
 20
360.060974
 40
2.000000
  0
CIRCLE
  8
LC-003-002-----0
 62
     1
  6
CONTINUOUS
 10
401.020813
 20
360.060974
 40
2.000000
  0
CIRCLE
  8
LC-003-002-----0
 62
     1
  6
CONTINUOUS
 10
368.020813
 20
360.060974
 40
2.000000
  0
CIRCLE
  8
LC-003-002-----0
 62
     1
  6
CONTINUOUS
 10
361.020813
 20
360.060974
 40
2.000000
  0
CIRCLE
  8
LC-003-002-----0
 62
     1
  6
CONTINUOUS
 10
349.020813
 20
360.060974
 40
2.000000
  0
LINE
  8
LC-003-002-----0
 62
     1
  6
CONTINUOUS
 10
406.020813
 20
363.060974
 11
406.020813
 21
351.560974
  0
LINE
  8
LC-003-002-----0
 62
     1
  6
CONTINUOUS
 10
406.020813
 20
363.060974
 11
407.020813
 21
363.060974
  0
LINE
  8
LC-003-002-----0
 62
     1
  6
CONTINUOUS
 10
407.020813
 20
362.060974
 11
408.520813
 21
362.060974
  0
LINE
  8
LC-003-002-----0
 62
     1
  6
CONTINUOUS
 10
396.020813
 20
362.060974
 11
396.020813
 21
357.060974
  0
LINE
  8
LC-003-002-----0
 62
     1
  6
CONTINUOUS
 10
394.520813
 20
362.060974
 11
394.520813
 21
357.060974
  0
LINE
  8
LC-003-002-----0
 62
     1
  6
CONTINUOUS
 10
394.520813
 20
357.060974
 11
396.020813
 21
357.060974
  0
LINE
  8
LC-003-002-----0
 62
     1
  6
CONTINUOUS
 10
396.020813
 20
358.060974
 11
406.020813
 21
358.060974
  0
LINE
  8
LC-003-002-----0
 62
     1
  6
CONTINUOUS
 10
401.020813
 20
356.060974
 11
401.020813
 21
351.560974
  0
LINE
  8
LC-003-002-----0
 62
     1
  6
CONTINUOUS
 10
402.020813
 20
356.060974
 11
402.020813
 21
351.560974
  0
LINE
  8
LC-003-002-----0
 62
     1
  6
CONTINUOUS
 10
401.020813
 20
356.060974
 11
402.020813
 21
356.060974
  0
LINE
  8
LC-003-002-----0
 62
     1
  6
CONTINUOUS
 10
402.020813
 20
355.060974
 11
406.020813
 21
355.060974
  0
LINE
  8
LC-003-002-----0
 62
     1
  6
CONTINUOUS
 10
354.020813
 20
362.060974
 11
354.020813
 21
357.060974
  0
LINE
  8
LC-003-002-----0
 62
     1
  6
CONTINUOUS
 10
355.520813
 20
362.060974
 11
355.520813
 21
357.060974
  0
LINE
  8
LC-003-002-----0
 62
     1
  6
CONTINUOUS
 10
355.520813
 20
357.060974
 11
354.020813
 21
357.060974
  0
LINE
  8
LC-003-002-----0
 62
     1
  6
CONTINUOUS
 10
349.020813
 20
356.060974
 11
349.020813
 21
351.560974
  0
LINE
  8
LC-003-002-----0
 62
     1
  6
CONTINUOUS
 10
348.020813
 20
356.060974
 11
348.020813
 21
351.560974
  0
LINE
  8
LC-003-002-----0
 62
     1
  6
CONTINUOUS
 10
349.020813
 20
356.060974
 11
348.020813
 21
356.060974
  0
LINE
  8
LC-003-002-----0
 62
     1
  6
CONTINUOUS
 10
343.020813
 20
363.060974
 11
343.020813
 21
351.560974
  0
LINE
  8
LC-003-002-----0
 62
     1
  6
CONTINUOUS
 10
344.020813
 20
363.060974
 11
344.020813
 21
351.560974
  0
LINE
  8
LC-003-002-----0
 62
     1
  6
CONTINUOUS
 10
344.020813
 20
363.060974
 11
343.020813
 21
363.060974
  0
LINE
  8
LC-003-002-----0
 62
     1
  6
CONTINUOUS
 10
344.020813
 20
362.060974
 11
406.020813
 21
362.060974
  0
LINE
  8
LC-003-002-----0
 62
     1
  6
CONTINUOUS
 10
344.020813
 20
358.060974
 11
354.020813
 21
358.060974
  0
LINE
  8
LC-003-002-----0
 62
     1
  6
CONTINUOUS
 10
355.520813
 20
358.060974
 11
394.520813
 21
358.060974
  0
ENDSEC
  0
EOF
