  0
SECTION
  2
HEADER
  9
$LIMMIN
 10
54.333603
 20
314.943817
  9
$LIMMAX
 10
222.144470
 20
374.411194
  9
$EXTMIN
 10
54.333603
 20
314.943817
  9
$EXTMAX
 10
222.144470
 20
374.411194
  0
ENDSEC
  0
SECTION
  2
TABLES
  0
TABLE
  2
LTYPE
 70
     3
  0
LTYPE
  2
CONTINUOUS
 70
    64
  3
Ausgezogene Linie
 72
    65
 73
     0
 40
0.0
  0
LTYPE
  2
DASHED
 70
    64
  3
__ __ __ __ __ __ __ __ __ __ __ __ __ __ __
 72
    65
 73
     2
 40
0.75
 49
0.5
 49
-0.25
  0
LTYPE
  2
DASHDOT
 70
    64
  3
__ . __ . __ . __ . __ . __ . __ . __ . __ . __
 72
    65
 73
     4
 40
1.0
 49
0.5
 49
-0.25
 49
0.0
 49
-0.25
  0
ENDTAB
  0
TABLE
  2
LAYER
 70
     5
  0
LAYER
  2
LC-INFO-1-1-MM-A2-0
 70
    64
 62
     7
  6
CONTINUOUS
  0
LAYER
  2
LC-003-002-----0
 70
    64
 62
     7
  6
CONTINUOUS
  0
LAYER
  2
LC-005-002-RND-0
 70
    64
 62
     7
  6
CONTINUOUS
  0
LAYER
  2
LC-004-006-----0
 70
    64
 62
     7
  6
CONTINUOUS
  0
LAYER
  2
LC-006-012-----0
 70
    64
 62
     7
  6
CONTINUOUS
  0
ENDTAB
  0
TABLE
  2
STYLE
 70
     1
  0
STYLE
  2
TXT8
 70
    64
 40
0.0
 41
1.0
 50
0.0
 71
     0
 42
3.500000
  3
TXT8
  4

  0
ENDTAB
  0
ENDSEC
  0
SECTION
  2
BLOCKS
  0
ENDSEC
  0
SECTION
  2
ENTITIES
  0
LINE
  8
LC-006-012-----0
 62
     2
  6
CONTINUOUS
 10
107.574814
 20
371.843597
 11
107.074814
 21
372.343597
  0
LINE
  8
LC-006-012-----0
 62
     2
  6
CONTINUOUS
 10
106.160599
 20
371.843597
 11
105.660599
 21
372.343597
  0
LINE
  8
LC-006-012-----0
 62
     2
  6
CONTINUOUS
 10
104.746384
 20
371.843597
 11
104.246384
 21
372.343597
  0
LINE
  8
LC-006-012-----0
 62
     2
  6
CONTINUOUS
 10
103.332176
 20
371.843597
 11
102.832176
 21
372.343597
  0
LINE
  8
LC-006-012-----0
 62
     2
  6
CONTINUOUS
 10
102.646538
 20
371.115021
 11
101.417961
 21
372.343597
  0
LINE
  8
LC-006-012-----0
 62
     2
  6
CONTINUOUS
 10
102.603745
 20
369.743591
 11
100.423271
 21
371.924072
  0
LINE
  8
LC-006-012-----0
 62
     2
  6
CONTINUOUS
 10
101.189529
 20
369.743591
 11
100.346535
 21
370.586578
  0
LINE
  8
LC-006-012-----0
 62
     2
  6
CONTINUOUS
 10
102.646538
 20
363.943573
 11
100.346535
 21
363.943573
  0
LINE
  8
LC-006-012-----0
 62
     2
  6
CONTINUOUS
 10
100.346535
 20
363.943573
 11
100.346535
 21
360.593597
  0
LINE
  8
LC-006-012-----0
 62
     2
  6
CONTINUOUS
 10
100.346535
 20
360.593597
 11
99.596535
 21
360.593597
  0
LINE
  8
LC-006-012-----0
 62
     2
  6
CONTINUOUS
 10
99.596535
 20
360.593597
 11
99.596535
 21
361.343597
  0
LINE
  8
LC-006-012-----0
 62
     2
  6
CONTINUOUS
 10
99.596535
 20
361.343597
 11
73.096535
 21
361.343597
  0
LINE
  8
LC-006-012-----0
 62
     2
  6
CONTINUOUS
 10
72.346535
 20
360.593597
 11
72.346535
 21
357.843597
  0
LINE
  8
LC-006-012-----0
 62
     2
  6
CONTINUOUS
 10
72.346535
 20
357.843597
 11
73.346535
 21
357.843597
  0
LINE
  8
LC-006-012-----0
 62
     2
  6
CONTINUOUS
 10
73.346535
 20
357.843597
 11
73.346535
 21
358.343597
  0
LINE
  8
LC-006-012-----0
 62
     2
  6
CONTINUOUS
 10
73.346535
 20
358.343597
 11
73.846535
 21
358.343597
  0
LINE
  8
LC-006-012-----0
 62
     2
  6
CONTINUOUS
 10
73.846535
 20
358.343597
 11
73.846535
 21
357.843597
  0
LINE
  8
LC-006-012-----0
 62
     2
  6
CONTINUOUS
 10
73.846535
 20
357.843597
 11
106.846535
 21
357.843597
  0
LINE
  8
LC-006-012-----0
 62
     2
  6
CONTINUOUS
 10
106.846535
 20
357.843597
 11
106.846535
 21
358.343597
  0
LINE
  8
LC-006-012-----0
 62
     2
  6
CONTINUOUS
 10
106.846535
 20
358.343597
 11
107.346535
 21
358.343597
  0
LINE
  8
LC-006-012-----0
 62
     2
  6
CONTINUOUS
 10
107.346535
 20
358.343597
 11
107.346535
 21
357.843597
  0
LINE
  8
LC-006-012-----0
 62
     2
  6
CONTINUOUS
 10
107.346535
 20
357.843597
 11
108.346535
 21
357.843597
  0
LINE
  8
LC-006-012-----0
 62
     2
  6
CONTINUOUS
 10
108.346535
 20
357.843597
 11
108.346535
 21
361.843597
  0
LINE
  8
LC-006-012-----0
 62
     2
  6
CONTINUOUS
 10
108.346535
 20
361.843597
 11
102.646538
 21
361.843597
  0
LINE
  8
LC-006-012-----0
 62
     2
  6
CONTINUOUS
 10
102.646538
 20
361.843597
 11
102.646538
 21
363.943573
  0
LINE
  8
LC-006-012-----0
 62
     2
  6
CONTINUOUS
 10
108.346535
 20
361.172363
 11
107.675316
 21
361.843597
  0
LINE
  8
LC-006-012-----0
 62
     2
  6
CONTINUOUS
 10
108.346535
 20
359.758148
 11
106.261108
 21
361.843597
  0
LINE
  8
LC-006-012-----0
 62
     2
  6
CONTINUOUS
 10
108.346535
 20
358.343933
 11
104.846893
 21
361.843597
  0
LINE
  8
LC-006-012-----0
 62
     2
  6
CONTINUOUS
 10
107.432678
 20
357.843597
 11
107.346535
 21
357.929718
  0
LINE
  8
LC-006-012-----0
 62
     2
  6
CONTINUOUS
 10
106.932678
 20
358.343597
 11
103.432678
 21
361.843597
  0
LINE
  8
LC-006-012-----0
 62
     2
  6
CONTINUOUS
 10
102.646538
 20
362.629730
 11
101.332680
 21
363.943573
  0
LINE
  8
LC-006-012-----0
 62
     2
  6
CONTINUOUS
 10
106.018463
 20
357.843597
 11
100.346535
 21
363.515503
  0
LINE
  8
LC-006-012-----0
 62
     2
  6
CONTINUOUS
 10
104.604256
 20
357.843597
 11
100.346535
 21
362.101288
  0
LINE
  8
LC-006-012-----0
 62
     2
  6
CONTINUOUS
 10
103.190041
 20
357.843597
 11
100.346535
 21
360.687073
  0
LINE
  8
LC-006-012-----0
 62
     2
  6
CONTINUOUS
 10
101.775826
 20
357.843597
 11
98.275826
 21
361.343597
  0
LINE
  8
LC-006-012-----0
 62
     2
  6
CONTINUOUS
 10
100.361610
 20
357.843597
 11
96.861610
 21
361.343597
  0
LINE
  8
LC-006-012-----0
 62
     2
  6
CONTINUOUS
 10
98.947395
 20
357.843597
 11
95.447395
 21
361.343597
  0
LINE
  8
LC-006-012-----0
 62
     2
  6
CONTINUOUS
 10
97.533180
 20
357.843597
 11
94.033180
 21
361.343597
  0
LINE
  8
LC-006-012-----0
 62
     2
  6
CONTINUOUS
 10
96.118973
 20
357.843597
 11
92.618973
 21
361.343597
  0
LINE
  8
LC-006-012-----0
 62
     2
  6
CONTINUOUS
 10
94.704758
 20
357.843597
 11
91.204758
 21
361.343597
  0
LINE
  8
LC-006-012-----0
 62
     2
  6
CONTINUOUS
 10
93.290543
 20
357.843597
 11
89.790543
 21
361.343597
  0
LINE
  8
LC-006-012-----0
 62
     2
  6
CONTINUOUS
 10
91.876328
 20
357.843597
 11
88.376328
 21
361.343597
  0
LINE
  8
LC-006-012-----0
 62
     2
  6
CONTINUOUS
 10
90.462112
 20
357.843597
 11
86.962112
 21
361.343597
  0
LINE
  8
LC-006-012-----0
 62
     2
  6
CONTINUOUS
 10
89.047905
 20
357.843597
 11
85.547905
 21
361.343597
  0
LINE
  8
LC-006-012-----0
 62
     2
  6
CONTINUOUS
 10
87.633690
 20
357.843597
 11
84.133690
 21
361.343597
  0
LINE
  8
LC-006-012-----0
 62
     2
  6
CONTINUOUS
 10
86.219475
 20
357.843597
 11
82.719475
 21
361.343597
  0
LINE
  8
LC-006-012-----0
 62
     2
  6
CONTINUOUS
 10
84.805260
 20
357.843597
 11
81.305260
 21
361.343597
  0
LINE
  8
LC-006-012-----0
 62
     2
  6
CONTINUOUS
 10
83.391045
 20
357.843597
 11
79.891045
 21
361.343597
  0
LINE
  8
LC-006-012-----0
 62
     2
  6
CONTINUOUS
 10
81.976837
 20
357.843597
 11
78.476837
 21
361.343597
  0
LINE
  8
LC-006-012-----0
 62
     2
  6
CONTINUOUS
 10
80.562622
 20
357.843597
 11
77.062622
 21
361.343597
  0
LINE
  8
LC-006-012-----0
 62
     2
  6
CONTINUOUS
 10
79.148407
 20
357.843597
 11
75.648407
 21
361.343597
  0
LINE
  8
LC-006-012-----0
 62
     2
  6
CONTINUOUS
 10
77.734192
 20
357.843597
 11
74.234192
 21
361.343597
  0
LINE
  8
LC-006-012-----0
 62
     2
  6
CONTINUOUS
 10
76.319977
 20
357.843597
 11
72.858696
 21
361.304871
  0
LINE
  8
LC-006-012-----0
 62
     2
  6
CONTINUOUS
 10
74.905769
 20
357.843597
 11
72.346535
 21
360.402802
  0
LINE
  8
LC-006-012-----0
 62
     2
  6
CONTINUOUS
 10
73.346535
 20
357.988586
 11
72.346535
 21
358.988586
  0
LINE
  8
LC-006-012-----0
 62
     2
  6
CONTINUOUS
 10
105.856209
 20
353.343597
 11
106.846535
 21
354.333923
  0
LINE
  8
LC-006-012-----0
 62
     2
  6
CONTINUOUS
 10
104.441994
 20
353.343597
 11
106.441994
 21
355.343597
  0
LINE
  8
LC-006-012-----0
 62
     2
  6
CONTINUOUS
 10
103.346535
 20
353.662323
 11
105.027786
 21
355.343597
  0
LINE
  8
LC-006-012-----0
 62
     2
  6
CONTINUOUS
 10
101.613571
 20
353.343597
 11
103.613571
 21
355.343597
  0
LINE
  8
LC-006-012-----0
 62
     2
  6
CONTINUOUS
 10
100.398026
 20
353.542267
 11
102.199356
 21
355.343597
  0
LINE
  8
LC-006-012-----0
 62
     2
  6
CONTINUOUS
 10
98.785141
 20
353.343597
 11
100.285141
 21
354.843597
  0
LINE
  8
LC-006-012-----0
 62
     2
  6
CONTINUOUS
 10
100.346535
 20
354.904968
 11
100.785141
 21
355.343597
  0
LINE
  8
LC-006-012-----0
 62
     2
  6
CONTINUOUS
 10
97.370926
 20
353.343597
 11
99.346535
 21
355.319183
  0
LINE
  8
LC-006-012-----0
 62
     2
  6
CONTINUOUS
 10
95.956718
 20
353.343597
 11
97.956718
 21
355.343597
  0
LINE
  8
LC-006-012-----0
 62
     2
  6
CONTINUOUS
 10
94.542503
 20
353.343597
 11
96.542503
 21
355.343597
  0
LINE
  8
LC-006-012-----0
 62
     2
  6
CONTINUOUS
 10
93.128288
 20
353.343597
 11
95.128288
 21
355.343597
  0
LINE
  8
LC-006-012-----0
 62
     2
  6
CONTINUOUS
 10
91.714073
 20
353.343597
 11
93.714073
 21
355.343597
  0
LINE
  8
LC-006-012-----0
 62
     2
  6
CONTINUOUS
 10
90.299858
 20
353.343597
 11
92.299858
 21
355.343597
  0
LINE
  8
LC-006-012-----0
 62
     2
  6
CONTINUOUS
 10
88.885651
 20
353.343597
 11
90.885651
 21
355.343597
  0
LINE
  8
LC-006-012-----0
 62
     2
  6
CONTINUOUS
 10
87.471436
 20
353.343597
 11
89.471436
 21
355.343597
  0
LINE
  8
LC-006-012-----0
 62
     2
  6
CONTINUOUS
 10
86.057220
 20
353.343597
 11
88.057220
 21
355.343597
  0
LINE
  8
LC-006-012-----0
 62
     2
  6
CONTINUOUS
 10
84.643005
 20
353.343597
 11
86.643005
 21
355.343597
  0
LINE
  8
LC-006-012-----0
 62
     2
  6
CONTINUOUS
 10
83.228790
 20
353.343597
 11
85.228790
 21
355.343597
  0
LINE
  8
LC-006-012-----0
 62
     2
  6
CONTINUOUS
 10
81.814575
 20
353.343597
 11
83.814575
 21
355.343597
  0
LINE
  8
LC-006-012-----0
 62
     2
  6
CONTINUOUS
 10
80.574120
 20
353.517334
 11
82.400368
 21
355.343597
  0
LINE
  8
LC-006-012-----0
 62
     2
  6
CONTINUOUS
 10
78.986153
 20
353.343597
 11
80.486153
 21
354.843597
  0
LINE
  8
LC-006-012-----0
 62
     2
  6
CONTINUOUS
 10
77.846535
 20
353.618195
 11
79.571938
 21
355.343597
  0
LINE
  8
LC-006-012-----0
 62
     2
  6
CONTINUOUS
 10
76.157722
 20
353.343597
 11
78.157722
 21
355.343597
  0
LINE
  8
LC-006-012-----0
 62
     2
  6
CONTINUOUS
 10
74.743507
 20
353.343597
 11
76.743507
 21
355.343597
  0
LINE
  8
LC-006-012-----0
 62
     2
  6
CONTINUOUS
 10
73.846535
 20
353.860809
 11
75.329300
 21
355.343597
  0
LINE
  8
LC-006-012-----0
 62
     2
  6
CONTINUOUS
 10
73.846535
 20
355.275024
 11
73.915085
 21
355.343597
  0
LINE
  8
LC-005-002-RND-0
 62
     2
  6
DASHDOT
 10
54.333603
 20
345.343597
 11
131.442703
 21
345.343597
  0
LINE
  8
LC-003-002-----0
 62
     1
  6
CONTINUOUS
 10
73.096535
 20
361.343597
 11
99.596535
 21
361.343597
  0
LINE
  8
LC-003-002-----0
 62
     1
  6
CONTINUOUS
 10
73.096535
 20
329.343597
 11
99.596535
 21
329.343597
  0
LINE
  8
LC-003-002-----0
 62
     1
  6
CONTINUOUS
 10
101.096535
 20
372.343597
 11
107.596535
 21
372.343597
  0
LINE
  8
LC-003-002-----0
 62
     1
  6
CONTINUOUS
 10
101.096535
 20
318.343597
 11
107.596535
 21
318.343597
  0
LINE
  8
LC-003-002-----0
 62
     1
  6
CONTINUOUS
 10
72.346535
 20
360.593597
 11
72.346535
 21
351.343597
  0
LINE
  8
LC-003-002-----0
 62
     1
  6
CONTINUOUS
 10
108.346535
 20
371.593597
 11
108.346535
 21
351.343597
  0
LINE
  8
LC-003-002-----0
 62
     1
  6
CONTINUOUS
 10
100.346535
 20
371.593597
 11
100.346535
 21
360.593597
  0
LINE
  8
LC-003-002-----0
 62
     1
  6
CONTINUOUS
 10
99.596535
 20
361.343597
 11
99.596535
 21
360.593597
  0
LINE
  8
LC-003-002-----0
 62
     1
  6
CONTINUOUS
 10
99.596535
 20
360.593597
 11
100.346535
 21
360.593597
  0
LINE
  8
LC-003-002-----0
 62
     1
  6
CONTINUOUS
 10
99.596535
 20
330.093597
 11
100.346535
 21
330.093597
  0
ARC
  8
LC-003-002-----0
 62
     1
  6
CONTINUOUS
 10
73.096535
 20
360.593597
 40
0.750000
 50
90.000003
 51
180.000009
  0
ARC
  8
LC-003-002-----0
 62
     1
  6
CONTINUOUS
 10
73.096535
 20
330.093597
 40
0.750000
 50
180.000009
 51
269.999997
  0
ARC
  8
LC-003-002-----0
 62
     1
  6
CONTINUOUS
 10
101.096535
 20
371.593597
 40
0.750000
 50
90.000003
 51
180.000009
  0
ARC
  8
LC-003-002-----0
 62
     1
  6
CONTINUOUS
 10
107.596535
 20
371.593597
 40
0.750000
 50
0.000000
 51
90.000003
  0
ARC
  8
LC-003-002-----0
 62
     1
  6
CONTINUOUS
 10
107.596535
 20
319.093597
 40
0.750000
 50
269.999997
 51
0.000000
  0
ARC
  8
LC-003-002-----0
 62
     1
  6
CONTINUOUS
 10
101.096535
 20
319.093597
 40
0.750000
 50
180.000009
 51
269.999997
  0
LINE
  8
LC-003-002-----0
 62
     1
  6
CONTINUOUS
 10
56.856560
 20
339.343597
 11
72.346535
 21
339.343597
  0
LINE
  8
LC-006-012-----0
 62
     2
  6
CONTINUOUS
 10
56.856560
 20
339.343597
 11
57.328327
 21
341.652985
  0
LINE
  8
LC-006-012-----0
 62
     2
  6
CONTINUOUS
 10
57.328327
 20
341.652985
 11
56.413830
 21
348.220001
  0
LINE
  8
LC-006-012-----0
 62
     2
  6
CONTINUOUS
 10
56.413830
 20
348.220001
 11
57.084927
 21
351.343597
  0
LINE
  8
LC-006-012-----0
 62
     2
  6
CONTINUOUS
 10
128.052460
 20
339.343597
 11
128.317337
 21
341.652985
  0
LINE
  8
LC-006-012-----0
 62
     2
  6
CONTINUOUS
 10
128.317337
 20
341.652985
 11
127.402855
 21
347.158966
  0
LINE
  8
LC-006-012-----0
 62
     2
  6
CONTINUOUS
 10
127.402847
 20
347.158966
 11
127.642189
 21
351.343597
  0
LINE
  8
LC-003-002-----0
 62
     1
  6
CONTINUOUS
 10
72.346535
 20
351.343597
 11
108.346535
 21
351.343597
  0
LINE
  8
LC-003-002-----0
 62
     1
  6
CONTINUOUS
 10
108.346535
 20
351.343597
 11
127.642189
 21
351.343597
  0
LINE
  8
LC-004-006-----0
 62
     2
  6
DASHED
 10
72.346535
 20
339.343597
 11
108.346535
 21
339.343597
  0
LINE
  8
LC-003-002-----0
 62
     1
  6
CONTINUOUS
 10
108.346535
 20
339.343597
 11
128.052460
 21
339.343597
  0
LINE
  8
LC-005-002-RND-0
 62
     2
  6
DASHDOT
 10
160.841415
 20
345.343597
 11
222.144470
 21
345.343597
  0
LINE
  8
LC-005-002-RND-0
 62
     2
  6
DASHDOT
 10
191.140030
 20
374.411194
 11
191.140030
 21
314.943817
  0
ARC
  8
LC-003-002-----0
 62
     1
  6
CONTINUOUS
 10
191.140030
 20
345.343597
 40
27.000000
 50
173.942447
 51
186.057553
  0
CIRCLE
  8
LC-003-002-----0
 62
     1
  6
CONTINUOUS
 10
191.140030
 20
345.343597
 40
16.000000
  0
CIRCLE
  8
LC-003-002-----0
 62
     1
  6
CONTINUOUS
 10
191.140030
 20
345.343597
 40
6.000000
  0
CIRCLE
  8
LC-005-002-RND-0
 62
     2
  6
DASHDOT
 10
191.140030
 20
345.343597
 40
21.500000
  0
CIRCLE
  8
LC-004-006-----0
 62
     2
  6
DASHED
 10
191.140030
 20
366.843597
 40
5.000000
  0
CIRCLE
  8
LC-003-002-----0
 62
     1
  6
CONTINUOUS
 10
191.140030
 20
366.843597
 40
2.900000
  0
CIRCLE
  8
LC-003-002-----0
 62
     1
  6
CONTINUOUS
 10
169.640030
 20
345.343597
 40
2.900000
  0
CIRCLE
  8
LC-004-006-----0
 62
     2
  6
DASHED
 10
169.640030
 20
345.343597
 40
5.000000
  0
CIRCLE
  8
LC-004-006-----0
 62
     2
  6
DASHED
 10
191.140030
 20
323.843597
 40
5.000000
  0
CIRCLE
  8
LC-003-002-----0
 62
     1
  6
CONTINUOUS
 10
191.140030
 20
323.843597
 40
2.900000
  0
CIRCLE
  8
LC-003-002-----0
 62
     1
  6
CONTINUOUS
 10
212.640030
 20
345.343597
 40
2.900000
  0
CIRCLE
  8
LC-004-006-----0
 62
     2
  6
DASHED
 10
212.640030
 20
345.343597
 40
5.000000
  0
LINE
  8
LC-003-002-----0
 62
     1
  6
CONTINUOUS
 10
188.290787
 20
318.494354
 11
164.290787
 21
342.494354
  0
LINE
  8
LC-003-002-----0
 62
     1
  6
CONTINUOUS
 10
193.989273
 20
318.494354
 11
217.989273
 21
342.494354
  0
LINE
  8
LC-003-002-----0
 62
     1
  6
CONTINUOUS
 10
164.290787
 20
348.192841
 11
188.290787
 21
372.192841
  0
LINE
  8
LC-003-002-----0
 62
     1
  6
CONTINUOUS
 10
217.989273
 20
348.192841
 11
193.989273
 21
372.192841
  0
ARC
  8
LC-003-002-----0
 62
     1
  6
CONTINUOUS
 10
191.140030
 20
345.343597
 40
27.000000
 50
263.942439
 51
276.057556
  0
ARC
  8
LC-003-002-----0
 62
     1
  6
CONTINUOUS
 10
191.140030
 20
345.343597
 40
27.000000
 50
353.942441
 51
6.057559
  0
ARC
  8
LC-003-002-----0
 62
     1
  6
CONTINUOUS
 10
191.140030
 20
345.343597
 40
27.000000
 50
83.942444
 51
96.057561
  0
LINE
  8
LC-005-002-RND-0
 62
     2
  6
DASHDOT
 10
111.314957
 20
366.843597
 11
96.690964
 21
366.843597
  0
LINE
  8
LC-003-002-----0
 62
     1
  6
CONTINUOUS
 10
102.646538
 20
369.743591
 11
100.346535
 21
369.743591
  0
LINE
  8
LC-003-002-----0
 62
     1
  6
CONTINUOUS
 10
108.303642
 20
371.843597
 11
102.646538
 21
371.843597
  0
LINE
  8
LC-003-002-----0
 62
     1
  6
CONTINUOUS
 10
102.646538
 20
371.843597
 11
102.646538
 21
361.843597
  0
LINE
  8
LC-003-002-----0
 62
     1
  6
CONTINUOUS
 10
102.646538
 20
363.943573
 11
100.346535
 21
363.943573
  0
LINE
  8
LC-003-002-----0
 62
     1
  6
CONTINUOUS
 10
108.303642
 20
361.843597
 11
102.646538
 21
361.843597
  0
LINE
  8
LC-005-002-RND-0
 62
     2
  6
DASHDOT
 10
111.314957
 20
323.843597
 11
96.690964
 21
323.843597
  0
LINE
  8
LC-004-006-----0
 62
     2
  6
DASHED
 10
102.646538
 20
320.943573
 11
100.346535
 21
320.943573
  0
LINE
  8
LC-004-006-----0
 62
     2
  6
DASHED
 10
102.646538
 20
318.843597
 11
102.646538
 21
328.843597
  0
LINE
  8
LC-004-006-----0
 62
     2
  6
DASHED
 10
102.646538
 20
326.743591
 11
100.346535
 21
326.743591
  0
LINE
  8
LC-004-006-----0
 62
     2
  6
DASHED
 10
108.303642
 20
328.843597
 11
102.646538
 21
328.843597
  0
LINE
  8
LC-004-006-----0
 62
     2
  6
DASHED
 10
108.303642
 20
318.843597
 11
102.646538
 21
318.843597
  0
LINE
  8
LC-003-002-----0
 62
     1
  6
CONTINUOUS
 10
73.846535
 20
353.343597
 11
77.346535
 21
353.343597
  0
LINE
  8
LC-003-002-----0
 62
     1
  6
CONTINUOUS
 10
80.946533
 20
353.343597
 11
99.746536
 21
353.343597
  0
LINE
  8
LC-003-002-----0
 62
     1
  6
CONTINUOUS
 10
100.946533
 20
353.343597
 11
102.846535
 21
353.343597
  0
LINE
  8
LC-003-002-----0
 62
     1
  6
CONTINUOUS
 10
73.846535
 20
355.343597
 11
80.346535
 21
355.343597
  0
LINE
  8
LC-003-002-----0
 62
     1
  6
CONTINUOUS
 10
107.346535
 20
358.343597
 11
107.346535
 21
351.343597
  0
CIRCLE
  8
LC-003-002-----0
 62
     1
  6
CONTINUOUS
 10
191.140030
 20
345.343597
 40
14.000000
  0
CIRCLE
  8
LC-003-002-----0
 62
     1
  6
CONTINUOUS
 10
191.140030
 20
345.343597
 40
10.000000
  0
CIRCLE
  8
LC-003-002-----0
 62
     1
  6
CONTINUOUS
 10
191.140030
 20
345.343597
 40
12.000000
  0
LINE
  8
LC-003-002-----0
 62
     1
  6
CONTINUOUS
 10
72.346535
 20
357.843597
 11
73.346535
 21
357.843597
  0
CIRCLE
  8
LC-003-002-----0
 62
     1
  6
CONTINUOUS
 10
90.346535
 20
356.593597
 40
1.250000
  0
CIRCLE
  8
LC-003-002-----0
 62
     1
  6
CONTINUOUS
 10
90.346535
 20
352.343597
 40
1.000000
  0
CIRCLE
  8
LC-003-002-----0
 62
     1
  6
CONTINUOUS
 10
92.346535
 20
352.343597
 40
1.000000
  0
CIRCLE
  8
LC-003-002-----0
 62
     1
  6
CONTINUOUS
 10
94.346535
 20
352.343597
 40
1.000000
  0
CIRCLE
  8
LC-003-002-----0
 62
     1
  6
CONTINUOUS
 10
96.346535
 20
352.343597
 40
1.000000
  0
CIRCLE
  8
LC-003-002-----0
 62
     1
  6
CONTINUOUS
 10
100.346535
 20
352.543579
 40
1.000000
  0
CIRCLE
  8
LC-003-002-----0
 62
     1
  6
CONTINUOUS
 10
88.346535
 20
352.343597
 40
1.000000
  0
CIRCLE
  8
LC-003-002-----0
 62
     1
  6
CONTINUOUS
 10
86.346535
 20
352.343597
 40
1.000000
  0
CIRCLE
  8
LC-003-002-----0
 62
     1
  6
CONTINUOUS
 10
84.346535
 20
352.343597
 40
1.000000
  0
CIRCLE
  8
LC-003-002-----0
 62
     1
  6
CONTINUOUS
 10
80.346535
 20
352.543579
 40
1.000000
  0
LINE
  8
LC-003-002-----0
 62
     1
  6
CONTINUOUS
 10
72.346535
 20
345.343597
 11
72.346535
 21
330.093597
  0
LINE
  8
LC-003-002-----0
 62
     1
  6
CONTINUOUS
 10
99.596535
 20
345.343597
 11
99.596535
 21
329.343597
  0
LINE
  8
LC-003-002-----0
 62
     1
  6
CONTINUOUS
 10
100.346535
 20
345.343597
 11
100.346535
 21
319.093597
  0
LINE
  8
LC-003-002-----0
 62
     1
  6
CONTINUOUS
 10
108.346535
 20
345.343597
 11
108.346535
 21
319.093597
  0
CIRCLE
  8
LC-003-002-----0
 62
     1
  6
CONTINUOUS
 10
94.346535
 20
356.593597
 40
1.250000
  0
CIRCLE
  8
LC-003-002-----0
 62
     1
  6
CONTINUOUS
 10
86.346535
 20
356.593597
 40
1.250000
  0
CIRCLE
  8
LC-003-002-----0
 62
     1
  6
CONTINUOUS
 10
103.346535
 20
356.593597
 40
1.250000
  0
CIRCLE
  8
LC-003-002-----0
 62
     1
  6
CONTINUOUS
 10
77.346535
 20
356.593597
 40
1.250000
  0
LINE
  8
LC-003-002-----0
 62
     1
  6
CONTINUOUS
 10
106.846535
 20
358.343597
 11
106.846535
 21
351.343597
  0
LINE
  8
LC-003-002-----0
 62
     1
  6
CONTINUOUS
 10
106.846535
 20
358.343597
 11
107.346535
 21
358.343597
  0
LINE
  8
LC-003-002-----0
 62
     1
  6
CONTINUOUS
 10
107.346535
 20
357.843597
 11
108.346535
 21
357.843597
  0
LINE
  8
LC-003-002-----0
 62
     1
  6
CONTINUOUS
 10
73.346535
 20
358.343597
 11
73.346535
 21
351.343597
  0
LINE
  8
LC-003-002-----0
 62
     1
  6
CONTINUOUS
 10
73.846535
 20
358.343597
 11
73.846535
 21
351.343597
  0
LINE
  8
LC-003-002-----0
 62
     1
  6
CONTINUOUS
 10
73.846535
 20
358.343597
 11
73.346535
 21
358.343597
  0
LINE
  8
LC-003-002-----0
 62
     1
  6
CONTINUOUS
 10
73.846535
 20
357.843597
 11
106.846535
 21
357.843597
  0
LINE
  8
LC-003-002-----0
 62
     1
  6
CONTINUOUS
 10
103.346535
 20
353.843597
 11
103.346535
 21
351.343597
  0
CIRCLE
  8
LC-003-002-----0
 62
     1
  6
CONTINUOUS
 10
82.346535
 20
352.343597
 40
1.000000
  0
CIRCLE
  8
LC-003-002-----0
 62
     1
  6
CONTINUOUS
 10
98.346535
 20
352.343597
 40
1.000000
  0
LINE
  8
LC-003-002-----0
 62
     1
  6
CONTINUOUS
 10
102.846535
 20
353.843597
 11
102.846535
 21
351.343597
  0
LINE
  8
LC-003-002-----0
 62
     1
  6
CONTINUOUS
 10
102.846535
 20
353.843597
 11
103.346535
 21
353.843597
  0
LINE
  8
LC-003-002-----0
 62
     1
  6
CONTINUOUS
 10
103.346535
 20
353.343597
 11
106.846535
 21
353.343597
  0
LINE
  8
LC-003-002-----0
 62
     1
  6
CONTINUOUS
 10
77.346535
 20
353.843597
 11
77.346535
 21
351.343597
  0
LINE
  8
LC-003-002-----0
 62
     1
  6
CONTINUOUS
 10
77.846535
 20
353.843597
 11
77.846535
 21
351.343597
  0
LINE
  8
LC-003-002-----0
 62
     1
  6
CONTINUOUS
 10
77.846535
 20
353.843597
 11
77.346535
 21
353.843597
  0
LINE
  8
LC-003-002-----0
 62
     1
  6
CONTINUOUS
 10
77.846535
 20
353.343597
 11
79.746536
 21
353.343597
  0
LINE
  8
LC-003-002-----0
 62
     1
  6
CONTINUOUS
 10
100.346535
 20
357.843597
 11
100.346535
 21
354.843597
  0
LINE
  8
LC-003-002-----0
 62
     1
  6
CONTINUOUS
 10
99.346535
 20
357.843597
 11
99.346535
 21
354.843597
  0
LINE
  8
LC-003-002-----0
 62
     1
  6
CONTINUOUS
 10
99.346535
 20
354.843597
 11
100.346535
 21
354.843597
  0
LINE
  8
LC-003-002-----0
 62
     1
  6
CONTINUOUS
 10
100.346535
 20
355.343597
 11
106.846535
 21
355.343597
  0
LINE
  8
LC-003-002-----0
 62
     1
  6
CONTINUOUS
 10
80.346535
 20
357.843597
 11
80.346535
 21
354.843597
  0
LINE
  8
LC-003-002-----0
 62
     1
  6
CONTINUOUS
 10
81.346535
 20
357.843597
 11
81.346535
 21
354.843597
  0
LINE
  8
LC-003-002-----0
 62
     1
  6
CONTINUOUS
 10
81.346535
 20
354.843597
 11
80.346535
 21
354.843597
  0
LINE
  8
LC-003-002-----0
 62
     1
  6
CONTINUOUS
 10
81.346535
 20
355.343597
 11
99.346535
 21
355.343597
  0
LINE
  8
LC-003-002-----0
 62
     1
  6
CONTINUOUS
 10
57.084927
 20
351.343597
 11
72.346535
 21
351.343597
  0
ENDSEC
  0
EOF
