  0
SECTION
  2
HEADER
  9
$LIMMIN
 10
92.156860
 20
418.668457
  9
$LIMMAX
 10
382.995331
 20
496.899261
  9
$EXTMIN
 10
92.156860
 20
418.668457
  9
$EXTMAX
 10
382.995331
 20
496.899261
  0
ENDSEC
  0
SECTION
  2
TABLES
  0
TABLE
  2
LTYPE
 70
     3
  0
LTYPE
  2
CONTINUOUS
 70
    64
  3
Ausgezogene Linie
 72
    65
 73
     0
 40
0.0
  0
LTYPE
  2
DASHED
 70
    64
  3
__ __ __ __ __ __ __ __ __ __ __ __ __ __ __
 72
    65
 73
     2
 40
0.75
 49
0.5
 49
-0.25
  0
LTYPE
  2
DASHDOT
 70
    64
  3
__ . __ . __ . __ . __ . __ . __ . __ . __ . __
 72
    65
 73
     4
 40
1.0
 49
0.5
 49
-0.25
 49
0.0
 49
-0.25
  0
ENDTAB
  0
TABLE
  2
LAYER
 70
     4
  0
LAYER
  2
LC-004-006-----0
 70
    64
 62
     7
  6
CONTINUOUS
  0
LAYER
  2
LC-003-002-----0
 70
    64
 62
     7
  6
CONTINUOUS
  0
LAYER
  2
LC-006-012-----0
 70
    64
 62
     7
  6
CONTINUOUS
  0
LAYER
  2
LC-007-004-----0
 70
    64
 62
     7
  6
CONTINUOUS
  0
ENDTAB
  0
TABLE
  2
STYLE
 70
     1
  0
STYLE
  2
TXT8
 70
    64
 40
0.0
 41
1.0
 50
0.0
 71
     0
 42
3.500000
  3
TXT8
  4

  0
ENDTAB
  0
ENDSEC
  0
SECTION
  2
BLOCKS
  0
ENDSEC
  0
SECTION
  2
ENTITIES
  0
LINE
  8
LC-003-002-----0
 62
     2
  6
DASHDOT
 10
306.684204
 20
458.480774
 11
382.995331
 21
458.480774
  0
LINE
  8
LC-003-002-----0
 62
     2
  6
DASHDOT
 10
344.289520
 20
496.899261
 11
344.289520
 21
418.668457
  0
CIRCLE
  8
LC-004-006-----0
 62
     1
  6
CONTINUOUS
 10
344.289520
 20
458.480774
 40
20.000000
  0
ARC
  8
LC-004-006-----0
 62
     1
  6
CONTINUOUS
 10
344.289520
 20
458.480774
 40
31.000000
 50
294.999999
 51
244.999996
  0
ARC
  8
LC-004-006-----0
 62
     1
  6
CONTINUOUS
 10
344.289520
 20
458.480774
 40
21.000000
 50
294.999999
 51
244.999996
  0
LINE
  8
LC-004-006-----0
 62
     1
  6
CONTINUOUS
 10
353.164490
 20
439.448334
 11
357.390686
 21
430.385254
  0
LINE
  8
LC-004-006-----0
 62
     1
  6
CONTINUOUS
 10
335.414520
 20
439.448334
 11
331.188354
 21
430.385254
  0
LINE
  8
LC-003-002-----0
 62
     2
  6
DASHDOT
 10
92.156860
 20
458.480774
 11
247.329666
 21
458.480774
  0
LINE
  8
LC-004-006-----0
 62
     1
  6
CONTINUOUS
 10
133.786911
 20
489.480774
 11
142.136902
 21
489.480774
  0
LINE
  8
LC-004-006-----0
 62
     1
  6
CONTINUOUS
 10
133.786911
 20
430.385254
 11
142.136902
 21
430.385254
  0
LINE
  8
LC-004-006-----0
 62
     1
  6
CONTINUOUS
 10
132.286911
 20
487.980774
 11
132.286911
 21
431.885254
  0
LINE
  8
LC-004-006-----0
 62
     1
  6
CONTINUOUS
 10
212.286911
 20
487.980774
 11
212.286911
 21
431.885254
  0
LINE
  8
LC-004-006-----0
 62
     1
  6
CONTINUOUS
 10
102.088371
 20
478.480774
 11
132.286911
 21
478.480774
  0
LINE
  8
LC-004-006-----0
 62
     1
  6
CONTINUOUS
 10
99.603134
 20
438.480774
 11
132.286911
 21
438.480774
  0
LINE
  8
LC-007-004-----0
 62
     2
  6
CONTINUOUS
 10
99.603134
 20
438.480774
 11
102.220299
 21
449.856995
  0
LINE
  8
LC-007-004-----0
 62
     2
  6
CONTINUOUS
 10
102.220299
 20
449.856995
 11
98.944618
 21
466.076904
  0
LINE
  8
LC-007-004-----0
 62
     2
  6
CONTINUOUS
 10
98.944618
 20
466.076904
 11
102.088371
 21
478.480774
  0
LINE
  8
LC-007-004-----0
 62
     2
  6
CONTINUOUS
 10
239.871658
 20
438.480774
 11
242.939575
 21
448.722565
  0
LINE
  8
LC-007-004-----0
 62
     2
  6
CONTINUOUS
 10
242.939575
 20
448.722565
 11
239.005386
 21
468.028442
  0
LINE
  8
LC-007-004-----0
 62
     2
  6
CONTINUOUS
 10
239.005386
 20
468.028442
 11
240.419724
 21
478.480774
  0
LINE
  8
LC-006-012-----0
 62
     2
  6
DASHED
 10
132.286911
 20
478.480774
 11
212.286911
 21
478.480774
  0
LINE
  8
LC-004-006-----0
 62
     1
  6
CONTINUOUS
 10
212.286911
 20
478.480774
 11
240.419724
 21
478.480774
  0
LINE
  8
LC-006-012-----0
 62
     2
  6
DASHED
 10
132.286911
 20
438.480774
 11
212.286911
 21
438.480774
  0
LINE
  8
LC-004-006-----0
 62
     1
  6
CONTINUOUS
 10
212.286911
 20
438.480774
 11
239.871658
 21
438.480774
  0
LINE
  8
LC-004-006-----0
 62
     1
  6
CONTINUOUS
 10
200.286911
 20
430.385254
 11
200.286911
 21
489.480774
  0
LINE
  8
LC-004-006-----0
 62
     1
  6
CONTINUOUS
 10
202.436905
 20
430.385254
 11
202.436905
 21
489.480774
  0
LINE
  8
LC-004-006-----0
 62
     1
  6
CONTINUOUS
 10
200.286911
 20
487.980774
 11
202.436905
 21
487.980774
  0
LINE
  8
LC-004-006-----0
 62
     1
  6
CONTINUOUS
 10
200.286911
 20
431.885254
 11
202.436905
 21
431.885254
  0
LINE
  8
LC-004-006-----0
 62
     1
  6
CONTINUOUS
 10
202.436905
 20
489.480774
 11
210.786911
 21
489.480774
  0
LINE
  8
LC-004-006-----0
 62
     1
  6
CONTINUOUS
 10
202.436905
 20
430.385254
 11
210.786911
 21
430.385254
  0
LINE
  8
LC-004-006-----0
 62
     1
  6
CONTINUOUS
 10
144.286911
 20
430.385254
 11
144.286911
 21
489.480774
  0
LINE
  8
LC-004-006-----0
 62
     1
  6
CONTINUOUS
 10
142.136902
 20
430.385254
 11
142.136902
 21
489.480774
  0
LINE
  8
LC-004-006-----0
 62
     1
  6
CONTINUOUS
 10
144.286911
 20
487.980774
 11
142.136902
 21
487.980774
  0
LINE
  8
LC-004-006-----0
 62
     1
  6
CONTINUOUS
 10
144.286911
 20
431.885254
 11
142.136902
 21
431.885254
  0
LINE
  8
LC-004-006-----0
 62
     1
  6
CONTINUOUS
 10
144.286911
 20
489.480774
 11
200.286911
 21
489.480774
  0
LINE
  8
LC-004-006-----0
 62
     1
  6
CONTINUOUS
 10
144.286911
 20
430.385254
 11
200.286911
 21
430.385254
  0
ARC
  8
LC-004-006-----0
 62
     1
  6
CONTINUOUS
 10
133.786911
 20
487.980774
 40
1.500000
 50
90.000003
 51
180.000009
  0
ARC
  8
LC-004-006-----0
 62
     1
  6
CONTINUOUS
 10
133.786911
 20
431.885254
 40
1.500000
 50
180.000009
 51
269.999997
  0
ARC
  8
LC-004-006-----0
 62
     1
  6
CONTINUOUS
 10
210.786911
 20
431.885254
 40
1.500000
 50
269.999997
 51
0.000000
  0
ARC
  8
LC-004-006-----0
 62
     1
  6
CONTINUOUS
 10
210.786911
 20
487.980774
 40
1.500000
 50
0.000000
 51
90.000003
  0
LINE
  8
LC-003-002-----0
 62
     2
  6
DASHDOT
 10
167.655334
 20
459.980774
 11
177.007706
 21
459.980774
  0
LINE
  8
LC-003-002-----0
 62
     2
  6
DASHDOT
 10
172.286911
 20
464.369293
 11
172.286911
 21
455.592224
  0
CIRCLE
  8
LC-006-012-----0
 62
     2
  6
DASHED
 10
172.286911
 20
459.980774
 40
1.600000
  0
LINE
  8
LC-003-002-----0
 62
     2
  6
DASHDOT
 10
308.356812
 20
459.980774
 11
327.961121
 21
459.980774
  0
LINE
  8
LC-006-012-----0
 62
     2
  6
DASHED
 10
313.465668
 20
461.780792
 11
323.519592
 21
461.780792
  0
LINE
  8
LC-006-012-----0
 62
     2
  6
DASHED
 10
313.290955
 20
458.180786
 11
323.289734
 21
458.180786
  0
ARC
  8
LC-004-006-----0
 62
     1
  6
CONTINUOUS
 10
344.289520
 20
458.480774
 40
26.000000
 50
294.999999
 51
244.999996
  0
ENDSEC
  0
EOF
